Mudvayne - Dig Chords & Tabs

 

Dig Chords & Tabs

Mudvayne Chords & Tabs

Version: 7 Type: Tab 0 ratings
1 star 2 stars 3 stars 4 stars 5 stars
comments

Dig Tab

   
Song: “Dig”
Artist: Mudvayne
Album: L.D. 50
Transcribed By: thomas hassler

Tuning: Drop D, Down 1 1/2 Steps (B,F#,B,E,G#,C#)
^(n) - bend 1/2 step and release
*    - palm mute

INTRO:
|-----------------------------------------------|
|-----------------------------------------------|
|-----------------------------------------------|
|-----------------------------------------------|
|-0-0---0-0---0-0---0-0---0-0---0-0---0-0---0-0-|
|-0-0---0-0---0-0---0-0---0-0---0-0---0-0---0-0-|

|-----------------------------------------------------------|
|----6^(6)---6^(6)---6^(6)---6^(6)---------6^(6)---6^(6)----|
|-----------------------------------------------------------|
|-----------------------------------------------------------|
|-0-0-----0-0-----0-0-----0-0-----0-0---0-0-----0-0-----0-0-|
|-0-0-----0-0-----0-0-----0-0-----0-0---0-0-----0-0-----0-0-|

CHORUS:
|----------------------------------------------------------------------|
|----------------------------------------------------------------------|
|--------------------------------------------------------------------3-|
|-3-2---0-2-2h3-2-0-2h3p2--0-2-2h3-2-0-2h3p2--0-2-2h3-2-0-2h3p2--0-0-2-|
|-3-2---0-2-2h3-2-0-2h3p2--0-2-2h3-2-0-2h3p2--0-2-2h3-2-0-2h3p2--0-0-1-|
|-3-2---0-2-2h3-2-0-2h3p2--0-2-2h3-2-0-2h3p2--0-2-2h3-2-0-2h3p2--0-0---|
[ Tab from: http://www.guitartabs.cc/tabs/m/mudvayne/dig_tab_ver_7.html ]
VERSE:
|---------------------------------------------------------------|
|----------------------------------------------8888888888888888-|
|----------------------------------------------XXXXXXXXXXXXXXXX-|
|----------------------------------------------5555555555555555-|
|-2-2--0-2-3-2-0-2-2--0-2-3-2-0-2-2--0-2-3-2-0------------------|
|-2-2--0-2-3-2-0-2-2--0-2-3-2-0-2-2--0-2-3-2-0------------------|
  * *  * * * * * * *  * * * * * * *  * * * * *

FILL: (palm mute)
|-------------|
|-------------|
|-------------|
|-------------|
|-0-1-2-5-4-3-|
|-0-1-2-5-4-3-|

INTERLUDE:
|----------------------------------------------------------------------|
|----------------------------------------------------------------------|
|----------------------------------------------------------------------|
|----------------------------------------------------------------------|
|3-2--3-2--3-2--3-2--3-2----------3-2----------3-2----------3-2--------|
|3-2--3-2--3-2--3-2--3-2-X-X-XXXX-3-2-X-X-XXXX-3-2-X-X-XXXX-3-2-X-X-XXX|

INTERLUDE 2:
|----------------------------------------|
|----------------------------------------|
|----------------------------------------|
|----------------------------------------|
|-2-2------------------------------------|
|-2-2--5h6p5--5h6p5--5h6p5--5h6p5--5h6p5-|
  * *

INTERLUDE 3:
|----------------------------------------|
|----------------------------------------|
|----------------------------------------|
|----------------------------------------|
|-2-2--5h6p5--5h6p5--5h6p5--5h6p5--5h6p5-|
|-2-2--5h6p5--5h6p5--5h6p5--5h6p5--5h6p5-|
  * *

CHORUS FILL:
|----------------------------------|
|----------------------------------|
|----------------------------------|
|-2h3p2--0-2-2h3-2-0-2h3p2---2h3p2-|
|-2h3p2--0-2-2h3-2-0-2h3p2---2h3p2-|
|-2h3p2--0-2-2h3-2-0-2h3p2---2h3p2-|

CHORUS OUTRO:
|----------------------------------------------------------------|
|----------------------------------------------------------------|
|--------------------------------------------------------------3-|
|-0-2-2h3p2-0-2h3p2--0-2-2h3p2-0-2h3p2--0-2-2h3p2-0-2h3p2--0-0-2-|
|-0-2-2h3p2-0-2h3p2--0-2-2h3p2-0-2h3p2--0-2-2h3p2-0-2h3p2--0-0-1-|
|-0-2-2h3p2-0-2h3p2--0-2-2h3p2-0-2h3p2--0-2-2h3p2-0-2h3p2--0-0---|
Comments