Mudvayne - Dig Chords & Tabs

 

Dig Chords & Tabs

Mudvayne Chords & Tabs

Version: 5 Type: Tab 1 rating
1 star 2 stars 3 stars 4 stars 5 stars
comments

Dig Tab

   
Band: Mudvayne
Song: Dig
Tabbed By: BlueInferno_9890@hotmail.com

Notes: If you like Slipknot, Blood for Blood, Factory 81, Fear Factory,
or any hardcore bands along those lines you should love this song. This
tab is about 99.9% correct, most likly 100%. Its much better than any 
other version on the net.

Tuning B F# B E G# C#

Intro Part One

|------------|
|------------|
|------------|
|-0-0---0-0--|
|-0-0---0-0--|
|-0-0---0-0--|

Intro Part Two: change to this a few times later
|--------------|
|--------------|
|--------------|
|-0-0---0-0-0--|
|-0-0---0-0-0--|
|-0-0---0-0-0--|

Main riff 1

|----------------------|    
|----------------------|    
|----------------------|    
|----------------------|    
|-2-2--0-2-2-3-2-2h3p2-|   
|-2-2--0-2-2-3-2-2h3p2-|x3  

|------|
|------|
|------|
|------|
|-0-0--|
|-0-0--|Last time


2nd main riff

|----------------------|    
|----------------------|    
|----------------------|    
|----------------------|    
|-2-2--0-2-2-3-2-2h3p2-|   
|-2-2--0-2-2-3-2-2h3p2-|x4

|-------------------------------------|
|-------------------------------------|
|-12-12-12-12-12-12-12-12-12-12-12-12-|
|--x--x--x--x--x--x--x--x--x--x--x--x-|
|-10-10-10-10-10-10-10-10-10-10-10-10-|
|-------------------------------------|on the 4th time

Before Bridge

|-------------|
|-------------|
|-------------|
|-------------|
|-0-1-2-5-4-3-|
|-0-1-2-5-4-3-|
  p.m..........

Bridge

|-------|
|-------|
|-------|
|-------|
|-2h3p2-|
|-2h3p2-|x4

|-------------------|
|-------------------|
|-------------------|
|-------------------|
|-2h3p2-x-x-x-x-x-x-|
|-2h3p2-x-x-x-x-x-x-|x4

|---------------------------------------|
|---------------------------------------|
|---------------------------------------|
|---------------------------------------|
|---------------------------------------|
|-2-2-5/6\5--5/6\5--5/6\5--5/6\5--5/6\5-|

[ Tab from: http://www.guitartabs.cc/tabs/m/mudvayne/dig_tab_ver_5.html ]
|----------------------------------------|
|----------------------------------------|
|----------------------------------------|
|----------------------------------------|
|-2-2--5/6\5--5/6\5--5/6\5--5/6\5--5/6\5-|
|-2-2--5/6\5--5/6\5--5/6\5--5/6\5--5/6\5-|

Outro

|----------------|
|----------------|
|----------------|
|----------------|
|-2-2--0-2-2h3p2-|
|-2-2--0-2-2h3p2-|

Lyrics:

Dig bury me underneath
Everything that I am rearranging 
Dig bury me underneath 
Everything that I was slowly changing

I would love to beat the face,
Of any mother fucker that's thinkin' they can change me,
White knuckles grip pushing through for the gold,
If you're wantin' a piece of me I broke the mother fuckin' mold,
I'm drowning in your wake 
Shit rubbed in my face 
Teething on concrete 
Gums bleeding 

Dig bury me underneath
Everything that I am rearranging 
Dig bury me underneath 
Everything that I was slowly changing

I struggle in violated space,
Sell out motherfuckers in the biz that try to fuck me,
Hang from their T's rated P.G. insight,
I ain't sellin' my soul when there's nothing to buy 
I'm livid in my space 
Pissing in my face 
Fuck you while you try 
To fuck me

Dig bury me underneath 
Everything that I am rearranging 
Dig bury me underneath 
Everything that I was you ain't fuckin' changing me

Let me help you tie the rope around your neck,
Let me help to talk you the wrong way off the ledge,
Let me help you hold the glock against your head 
Let me help you tie the rope around your neck,
Let me help to talk you the wrong way off the ledge,
Let me help you hold the glock up to your head,
Let me help to chain the weights onto your legs 
Get on the plank fuck 

Dig bury me underneath 
Everything that I am rearranging 
Dig bury me underneath 
Everything that I was slowly changing
Wish you were committing 
Suicide suckin' on a mother fuckin' tailpipe 
Dead man dangling from a tight rope 
Limbless in the middle of a channel 
Bombs away
Comments