Mudvayne - Dig Chords & Tabs

 

Dig Chords & Tabs

Mudvayne Chords & Tabs

Version: 3 Type: Tab 0 ratings
1 star 2 stars 3 stars 4 stars 5 stars
comments

Dig Tab

   
Song: Dig
Band: Mudvayne
Album: LD.50
Tabbed By: Lee(crazy_freik)

Tuned: B F# B E G# C#

Intro

C#---------------------  --------------------
G#---------------------  --------------------
E ---------------------  -----9-----9------9-
B -00-00-00-00---------  -00--x-00--x--00--x-
F#-00-00-00-00---------  -00--7-00--7--00--7-
B -00-00-00-00---------  -00----00-----00----


Heavy Part
             Repeat 3         
         
B -3-2-- -3-2-00-3-00-3-2-  -320-////////8--
F#-3-2-- -3-2-00-3-00-3-2-  -320-////////8--
B -3-2-- -3-2-00-3-00-3-2-  -320-////////8--
[ Tab from: http://www.guitartabs.cc/tabs/m/mudvayne/dig_tab_ver_3.html ]
Chorus(I Think)
            Repeat 3
        
C#----  ------------------  ---------------- 
G#----  ------------------  --888888888888--
E ----  ------------------  --xxxxxxxxxxxx--
B -1-0  -1-2-00--3-00-1-2-  --555555555555--
F#-1-0  -1-2-00--3-00-1-2-  ----------------
B -1-0  -1-2-00--3-00-1-2-  ----------------

Back to the Heavy part
Then to the chorus
Then back to the heavy part

B --7-8-3-4-2-0--  This is Probably wrong 
F#--7-8-3-4-2-0--  I guessed it because 
B --7-8-3-4-2-0--  I cant remember
                   but you can figure it out

B -3-2-  --3-2--x-xxxxx-----
F#-3-2-  --3-2--x-xxxxx-----
B -3-2-  --3-2--x-xxxxx-----

B 00---6-5-6-5-6-5-6-5-6-5--00--
F#00---6-5-6-5-6-5-6-5-6-5--00--
B 00---6-5-6-5-6-5-6-5-6-5--00--

B --7-8-3-4-2-0--
F#--7-8-3-4-2-0--
B --7-8-3-4-2-0--

Back to the main riff

Now this
   repeat 3 times
 
B--32-00-32-00-320--  -320--\\\\\\\8--
F#-32-00-32-00-320--  -320--\\\\\\\8--
B--32-00-32-00-320--  -320--\\\\\\\8--


This is a cool song and kinda hard to play 
but practice and youll get it if you have
somtin to say mail me at
crazy_freik@yahoo.com
Comments