Mudvayne - Dig Chords & Tabs

 

Dig Chords & Tabs

Mudvayne Chords & Tabs

Version: 2 Type: Tab 0 ratings
1 star 2 stars 3 stars 4 stars 5 stars
comments

Dig Tab

tabbed  by mike  teel
mudvayne  dig  ld.50
tuning  low  to  high or if  lazy play  in  drop ''d''
b,f#,b,e,g#,c#  this tuning  is  how itis really played
       intro ''yeah  urg  yeah  uge  yeah''
     c#  - - - - - - - - - - - - - - - - - - - - - 
       g#- - - - - - - - - - - - - - - - - - - - - 
      e - - - - - - - - - - - - - - - - - - - - - 
      b - - 8---8--8----8--8----8---8---8---8----
     f#  - -7 - 7- 7 -  7- 7- - 7---7---7---7 - -
      b - 00--00--00--00--00--00--00--00--00 - - -
                                                                ''
dig  bury  me  underneath...............''
      
      - - - - - - - - - - - - - - - - - - - - -
      - - - - - - - - - - - - - - - - - - - --
     -- - - - - - - - - - -  - - - - -- - - - -
     -- - - - - - - - - - - - - - - - - - - - -
     -2-2--0-2-2/3-3-0-0-2-2-0-022/330022
     -2-2--0-2-2/3-3-0-0-2-2-0-022/330022
      listen to  song  to  make  easier 
    this  part  is  whle  he  is  singing
    - - - ------]-------]
    - - - ------]-------]''listen to song to get  timing
    - - - -3----]-------]
    - - - -2----]-------]
    -00-023--/10]8/7-8/7]4/3-4/3--345653>then main riff 
    -00-023--/10]8/7-8/7]4/3-4/3--345653>then main  riff
[ Tab from: http://www.guitartabs.cc/tabs/m/mudvayne/dig_tab_ver_2.html ]
Comments