Mudvayne - Dig Chords & Tabs

 

Dig Chords & Tabs

Mudvayne Chords & Tabs

Version: 10 Type: Tab

Dig Tab

   
                                       DIG
                             As recorded by MuDvYaNe
                          (From the 2000 Album L.D.50)

Words and Music by MuDvAyNe
Arranged by MuDvAyNe
Transcribed by Matthew Martinez

Gtr I (B Gb B E Ab Db) - 'Gregg Tribett'
Gtr II (B F# B E) - 'Ryan Martinie'
Gtr III (B F# B E) - 'Ryan 2 (for chorus effect)'

   Intro
    Math Metal Q=136
    D5  C  D5  C          D5  Eb/C         D5  Eb/C
   4/4
    Gtr I
    E E Q  E E Q   4x     E E  E       +E  E E  E     +E
||-----------------||-||------11b13.5r(11)-----11b13r(11)-|
||o---------------o||-||o---------------------------------|
||-----------------||-||-------8b10.5r=(8)------8b10r=(8)-|
||-----------------||-||----------------------------------|
||o-0-0----0-0----o||-||o-0-0--------------0-0------------|
||--0-0----0-0-----||-||--0-0--------------0-0------------|
|
|   Gtr II
|   E E Q  E E Q   4x     E E  Q           E E  Q
||------9------9---||-||-------3/--------------/9---------|
||o-----8------8--o||-||o------2/--------------/8---------|
||o---------------o||-||o---------------------------------|
||--0-0----0-0-----||-||--0-0--------------0-0------------|


  D5  Eb/C       D5  Eb/C
  E E  E     +E  E E  E     +E
|-----11b13r(11)-----11b13r(11)---||
|--------------------------------o||
|------8b10r=(8)------8b10r=(8)---||
|---------------------------------||
|-0-0----------------------------o||
|-0-0------------0-0--------------||
|
| E E  Q         E E  Q
|------3/------------/9-----------||
|------2/------------/8----------o||
|--------------------------------o||
|-0-0------------0-0--------------||


 Verse
  E5F5E5   D5E5F5E5    D5
  S S E Q  S S S S S S S S
|--------------------------|
|--------------------------|
|--------------------------|
|--------------------------|
|-2-3-2----0-2-3-2-2-2-0-0-|
|-2-3-2----0-2-3-2-2-2-0-0-|
|
| S S E Q  S S S S S S S S
|--------------------------|
|--------------------------|
|--------------------------|
|-2-3-2----0-2-3-2-2-2-0-0-|


  E5F5E5   D5E5F5E5    D5    E5F5E5   D5E5F5E5    D5
  S S E Q  S S S S S S S S   S S E Q  S S S S S S S S
|--------------------------|--------------------------|
|--------------------------|--------------------------|
|--------------------------|--------------------------|
|--------------------------|--------------------------|
|-2-3-2----0-2-3-2-2-2-0-0-|-2-3-2----0-2-3-2-2-2-0-0-|
|-2-3-2----0-2-3-2-2-2-0-0-|-2-3-2----0-2-3-2-2-2-0-0-|
|
| S S E Q  S S S S S S S S   S S E Q  S S S S S S S S
|--------------------------|--------------------------|
|--------------------------|--------------------------|
|--------------------------|--------------------------|
|-2-3-2----0-2-3-2-2-2-0-0-|-2-3-2----0-2-3-2-2-2-0-0-|


                     Chorus
  E5F5E5C5/ED5  C     E5F5E5   D5E5F5E5    D5    E5F5E5   D5E5F5E5    D5
  S S E  Q  E E Q     S S E Q  S S S S S S S S   S S E Q  S S S S S S S S
|-------------------|--------------------------|---------------------------|
|-------------------|--------------------------|---------------------------|
|---------------3\--|--------------------------|---------------------------|
|---------------2\--|--------------------------|---------------------------|
|-2-3-2-10S=0-0-1\--|-2-3-2----0-2-3-2-2-2-0-0-|-2-3-2----0-2-3-2-2-2-0-0--|
|-2-3-2-10S=0-0-----|-2-3-2----0-2-3-2-2-2-0-0-|-2-3-2----0-2-3-2-2-2-0-0--|
|
| S S E  Q  E E Q     S S E Q  S S S S S S S S   S S E Q  S S S S S S S S
|---------------9\--|--------------------------|---------------------------|
|---------------8\--|--------------------------|---------------------------|
|-------------------|--------------------------|---------------------------|
|-2-3-2--2S=0-0-----|-2-3-2----0-2-3-2-2-2-0-0-|-2-3-2----0-2-3-2-2-2-0-0--|


  E5F5E5   D5E5F5E5    D5    E5F5E5C5/ED5  C     E5F5E5   D5E5F5E5    D5
  S S E Q  S S S S S S S S   S S E  Q  E E Q     S S E Q  S S S S S S S S
|--------------------------|-------------------|---------------------------|
|--------------------------|-------------------|---------------------------|
|--------------------------|---------------3\--|---------------------------|
|--------------------------|---------------2\--|---------------------------|
|-2-3-2----0-2-3-2-2-2-0-0-|-2-3-2-10S=0-0-1\--|-2-3-2----0-2-3-2-2-2-0-0--|
|-2-3-2----0-2-3-2-2-2-0-0-|-2-3-2-10S=0-0-----|-2-3-2----0-2-3-2-2-2-0-0--|
|
| S S E Q  S S S S S S S S   S S E  Q  E E Q     S S E Q  S S S S S S S S
|--------------------------|---------------9\--|---------------------------|
|--------------------------|---------------8\--|---------------------------|
|--------------------------|-------------------|---------------------------|
|-2-3-2----0-2-3-2-2-2-0-0-|-2-3-2--2S=0-0-----|-2-3-2----0-2-3-2-2-2-0-0--|


  E5F5E5   D5E5F5E5    D5    E5F5E5   D5E5F5E5    E5    E5F5E5C5/ED5  C
  S S E Q  S S S S S S S S   S S E Q  S S S S S S S S   S S E  Q  E E Q
|--------------------------|--------------------------|--------------------|
|--------------------------|--------------------------|--------------------|
|--------------------------|--------------------------|---------------3\---|
|--------------------------|--------------------------|---------------2\---|
|-2-3-2----0-2-3-2-2-2-0-0-|-2-3-2----0-2-3-2-2-2-0-0-|-2-3-2-10S=0-0-1\---|
|-2-3-2----0-2-3-2-2-2-0-0-|-2-3-2----0-2-3-2-2-2-0-0-|-2-3-2-10S=0-0------|
|
| S S E Q  S S S S S S S S   S S E Q  S S S S S S S S   S S E  Q  E E Q
|--------------------------|--------------------------|---------------9\---|
|--------------------------|--------------------------|---------------8\---|
|--------------------------|--------------------------|--------------------|
|-2-3-2----0-2-3-2-2-2-0-0-|-2-3-2----0-2-3-2-2-2-0-0-|-2-3-2--2S=0-0------|


 Verse
    E5
    E E   E E   S E   S E   E     E E   E E   S E   S E   E
|-----------------------------|-----------------------------|
|-----------------------------|-----------------------------|
|-----------------------------|-----------------------------|
|-----------------------------|-----------------------------|
|---2-2-----2---2-2---2-2---2-|---2-2-----2---2-2---2-2---2-|
|---2-2-----2---2-2---2-2---2-|---2-2-----2---2-2---2-2---2-|
|
| a E S S E S S S S E   S S E   a E S S E S S S S E   S S E
|---------9-----------------9-|---------9-----------------9-|
|-----------------------------|-----------------------------|
|-0-0-0---------x-------------|-0-0-0---------x-------------|
|-------x---x-x-x-x-5---x-x---|-------x---x-x-x-x-5---x-x---|


    E E   E E   S E   S E   E
|-------------------------------|
|-------------------------------|
|-------------------------------|
|-------------------------------|
|---2-2-----2---2-2---2-2---2---|
|---2-2-----2---2-2---2-2---2---|
|
| a E S S E S S S S E   S S E
|---------9-----------------9---|
|-------------------------------|
|-0-0-0---------x---------------|
|-------x---x-x-x-x-5---x-x-----|


    G
     S  S  S  S  S  S  S  S  S  S  S  S  S  S  S  S
|---------------------------------------------------|
|---------------------------------------------------|
|---12-12-12-12-12-12-12-12-12-12-12-12-12-12-12-12-|
|---------------------------------------------------|
|---10-10-10-10-10-10-10-10-10-10-10-10-10-10-10-10-|
|---------------------------------------------------|
|
| a  E     S  S  S  S  E     S  S  E     E     E
|-------------------2--------2-----2-----------9----|
|---------------------------------------------------|
|---------------------------------------------------|
|-0--2-----2--x--x-----x--------2--------x----------|


    E5
    E E   E E   S E   S E   E     E E   E E   S E   S E   E
|-----------------------------|--------------------------------|
|-----------------------------|--------------------------------|
|-----------------------------|--------------------------------|
|-----------------------------|--------------------------------|
|---2-2-----2---2-2---2-2---2-|---2-2-----2---2-2---2-2---2----|
|---2-2-----2---2-2---2-2---2-|---2-2-----2---2-2---2-2---2----|
|
| a E S S E S S S S E   S S E   a E S S E S S S S E   S S E
|---------9-----------------9-|---------9-----------------9----|
|-----------------------------|--------------------------------|
|-0-0-0---------x-------------|-0-0-0---------x----------------|
|-------x---x-x-x-x-5---x-x---|-------x---x-x-x-x-5---x-x------|


    E E   E E   S E   S E   E
|-----------------------------|
|-----------------------------|
|-----------------------------|
|-----------------------------|
|---2-2-----2---2-2---2-2---2-|
|---2-2-----2---2-2---2-2---2-|
|
| a E S S E S S S S E   S S E
|---------9-----------------9-|
|-----------------------------|
|-0-0-0---------x-------------|
|-------0---x-x-x-x-5---x-x---|


    G
     S  S  S  S  S  S  S  S  S  S  S  S  S  S  S  S
|----------------------------------------------------|
|----------------------------------------------------|
|---12-12-12-12-12-12-12-12-12-12-12-12-12-12-12-12--|
|----------------------------------------------------|
|---10-10-10-10-10-10-10-10-10-10-10-10-10-10-10-10--|
|----------------------------------------------------|
|
| a  E     S  S  S  S  E     S  S  E     E     E
|-------------------2--------2-----2-----------9-----|
|----------------------------------------------------|
|----------------------------------------------------|
|-0--2-----2--x--x-----x--------2--------x-----------|


   Chorus
    E5F5E5   D5E5F5E5    D5
    S S E Q  S S S S S S S S
||---------------------------|
||o--------------------------|
||---------------------------|
||---------------------------|
||o-2-3-2----0-2-3-2-2-2-0-0-|
||--2-3-2----0-2-3-2-2-2-0-0-|
|
|   S S E Q  S S S S S S S S
||---------------------------|
||o--------------------------|
||o--------------------------|
||--2-3-2----0-2-3-2-2-2-0-0-|


  E5F5E5   D5E5F5E5    D5    E5F5E5   D5E5F5E5    D5
  S S E Q  S S S S S S S S   S S E Q  S S S S S S S S
|--------------------------|---------------------------|
|--------------------------|---------------------------|
|--------------------------|---------------------------|
|--------------------------|---------------------------|
|-2-2-2----0-2-3-2-2-2-0-0-|-2-3-2----0-2-3-2-2-2-0-0--|
|-2-3-2----0-2-3-2-2-2-0-0-|-2-2-2----0-2-3-2-2-2-0-0--|
|
| S S E Q  S S S S S S S S   S S E Q  S S S S S S S S
|--------------------------|---------------------------|
|--------------------------|---------------------------|
|--------------------------|---------------------------|
|-2-3-2----0-2-3-2-2-2-0-0-|-2-3-2----0-2-3-2-2-2-0-0--|


                           Verse
  E5F5E5C5/ED5  C             E5
  S S E  Q  E E Q             E E   E E   S E   S E E
|--------------------||-||----------------------------|
|-------------------o||-||o---------------------------|
|---------------3\---||-||----------------------------|
|---------------2\---||-||----------------------------|
|-2-3-2-10S=0-0-1\--o||-||o---2-2-----2---2-2---2-2-2-|
|-2-3-2-10S=0-0------||-||----2-2-----2---2-2---2-2-2-|
|
| S S E  Q  E E Q           a E S S E S S S S E   E E
|---------------9\---||-||----------9-------7-------9-|
|---------------8\--o||-||o---------------------------|
|-------------------o||-||o-0-0-0-------x-------------|
|-2-3-2--2S=0-0------||-||--------x---x-x-x---x---x---|


    E E   E E   S E   S E E
|---------------------------|
|---------------------------|
|---------------------------|
|---------------------------|
|---2-2-----2---2-2---2-2-2-|
|---2-2-----2---2-2---2-2-2-|
|
| a E S S E S S S S E   E E
|---------9-------7-------9-|
|---------------------------|
|-0-0-0-------x-------------|
|-------x---x-x-x---x---x---|


  1.
    E E   E E   S E   S E E
|---------------------------|
|---------------------------|
|---------------------------|
|---------------------------|
|---2-2-----2---2-2---2-2-2-|
|---2-2-----2---2-2---2-2-2-|
|
| a E S S E S S S S E   E E
|---------9-------7-------9-|
|---------------------------|
|-0-0-0-------x-------------|
|-------x---x-x-x---x---x---|

[ Tab from: http://www.guitartabs.cc/tabs/m/mudvayne/dig_tab_ver_10.html ]
    G
     S  S  S  S  S  S  S  S  S  S  S  S  S  S  S  S
|----------------------------------------------------||
|---------------------------------------------------o||
|---12-12-12-12-12-12-12-12-12-12-12-12-12-12-12-12--||
|----------------------------------------------------||
|---10-10-10-10-10-10-10-10-10-10-10-10-10-10-10-10-o||
|----------------------------------------------------||
|
| a  E     S  S  S  S  S  S  S  S  E     S  S  E
|----------------0----------------14----------11-----||
|---------------------------------------------------o||
|----------------------x--0-----------------x-------o||
|-0--2-----2--x-----x--x-----x--x--------x--x--------||


  2.
    E5
    E E   E E   S E   S E E
|---------------------------|
|---------------------------|
|---------------------------|
|---------------------------|
|---2-2-----2---2-2---2-2-2-|
|---2-2-----2---2-2---2-2-2-|
|
| a E S S E S S S S S S E E
|---------9-------7-----5-4-|
|---------------------------|
|-0-0-0-------x---------3-2-|
|-------x---x-x-x---5-x-----|


    G
     S  S  S  S  S  S  S  S  S  S  S  S  S  S  S  S
|---------------------------------------------------|
|---------------------------------------------------|
|---12-12-12-12-12-12-12-12-12-12-12-12-12-12-12-12-|
|---------------------------------------------------|
|---10-10-10-10-10-10-10-10-10-10-10-10-10-10-10-10-|
|---------------------------------------------------|
|
| a  E     S  S  S  S  E     E     S  S  S  S  E
|----------------0-----------0-----------2--0-------|
|----------------------------------------------0----|
|----------------------0----------------------------|
|-0--2-----2--x-----2--------------0--3-------------|


   Chorus
    E5F5E5   D5E5F5E5    D5
    S S E Q  S S S S S S S S
||---------------------------|
||o--------------------------|
||---------------------------|
||---------------------------|
||o-2-3-2----0-2-3-2-2-2-0-0-|
||--2-3-2----0-2-3-2-2-2-0-0-|
|
|   S S E Q  S S S S S S S S
||---------------------------|
||o--------------------------|
||o--------------------------|
||--2-3-2----0-2-3-2-2-2-0-0-|


  E5F5E5   D5E5F5E5    D5    E5F5E5   D5E5F5E5    D5
  S S E Q  S S S S S S S S   S S E Q  S S S S S S S S
|--------------------------|---------------------------|
|--------------------------|---------------------------|
|--------------------------|---------------------------|
|--------------------------|---------------------------|
|-2-3-2----0-2-3-2-2-2-0-0-|-2-3-2----0-2-3-2-2-2-0-0--|
|-2-3-2----0-2-3-2-2-2-0-0-|-2-3-2----0-2-3-2-2-2-0-0--|
|
| S S E Q  S S S S S S S S   S S E Q  S S S S S S S S
|--------------------------|---------------------------|
|--------------------------|---------------------------|
|--------------------------|---------------------------|
|-2-3-2----0-2-3-2-2-2-0-0-|-2-3-2----0-2-3-2-2-2-0-0--|


  1.                     2.
  E5F5E5C5/a D5  C       E5F5E5
                        2/4
  S S E  Q   E E Q       S S E Q
|---------------------||----------|
|--------------------o||----------|
|----------------3\---||----------|
|----------------2\---||----------|
|-2-3-2-10S==0-0-1\--o||-2-3-2----|
|-2-3-2-10S==0-0------||-2-3-2----|
|
| S S E  Q   E E Q       S S E Q
|----------------9\---||----------|
|----------------8\--o||----------|
|--------3\----------o||----------|
|-2-3-2------0-0------||-2-3-2----|


 Bridge
  D5 D#5E5 G5  F#5 F5      E5F5E5          E5F5E5
 6/4                      4/4
  Q  Q  Q   Q   Q   Q      S S E H.        S S E H.
|----------------------||----------------|--------------||
|----------------------||o---------------|-------------o||
|----------------------||----------------|--------------||
|----------------------||----------------|--------------||
|-0--1--2---5---4---3--||o-2-3-2---------|-2-3-2-------o||
|-0--1--2---5---4---3--||--2-3-2---------|-2-3-2--------||
|
| Q  Q  Q   Q   Q   Q      S S E H.        S S E H.
|-7--8--9--12--11--10--||----------------|--------------||
|-5--6--7--10---9---8--||o---------------|-------------o||
|-5--6--7--10---9---8--||o---------------|-------------o||
|----------------------||--2-3-2---------|-2-3-2--------||


  E5F5E5                   E5F5E5
  S S E E  E E E S S S S   S S E E E E E S S S S
|------------------------|-----------------------|
|------------------------|-----------------------|
|------------------------|-----------------------|
|------------------------|-----------------------|
|-2-3-2----x---x-x-x-x-x-|-2-3-2---x---x-x-x-x-x-|
|-2-3-2----x---x-x-x-x-x-|-2-3-2---x---x-x-x-x-x-|
|
| S S E H.                 S S E E E E E S S S S
|------------------------|-----------------------|
|------------------------|---------x---x-x-x-x-x-|
|------------------------|---------x---x-x-x-x-x-|
|-2-3-2------------------|-2-3-2---x---x-x-x-x-x-|


  E5F5E5                  E5F5E5
  S S E E E E E S S S S   S S E E E E E S S S S
|-----------------------|--------------------------|
|-----------------------|--------------------------|
|-----------------------|--------------------------|
|-----------------------|--------------------------|
|-2-3-2---x---x-x-x-x-x-|-2-3-2---x---x-x-x-x-x----|
|-2-3-2---x---x-x-x-x-x-|-2-3-2---x---x-x-x-x-x----|
|
| S S E E E E E S S S S   S S E E E E E S S S S
|-----------------------|--------------------------|
|---------x---x-x-x-x-x-|---------x---x-x-x-x-x----|
|---------x---x-x-x-x-x-|---------x---x-x-x-x-x----|
|-2-3-2---x---x-x-x-x-x-|-2-3-2---x---x-x-x-x-x----|


  E5    G5                                E5G5
  E   E E E E E E E   E   E E E E E E E   E E E E E E E E   E E E E E E E E
|-------------------|-------------------|-----------------|------------------|
|-------------------|-------------------|-----------------|------------------|
|-------------------|-------------------|-----------------|------------------|
|-------------------|-------------------|-----------------|------------------|
|-2---2-5-5---5-5---|-5---5---5-5---5-5-|-2-5-5-5---5-5---|-5-5---5-5---5-5--|
|-2---2-5-5---5-5---|-5---5---5-5---5-5-|-2-5-5-5---5-5---|-5-5---5-5---5-5--|
|
| S S E Q   E E Q     S S E Q   E E Q     E E Q   E E Q     E E Q   E E Q
|-------------------|-------------------|-----3-------3---|-----3-------3----|
|-------------------|-------------------|-----2-------2---|-----2-------2----|
|-------------------|-------------------|-----------------|------------------|
|-2-2-2-----2-2-----|-2-2-2-----2-2-----|-0-0-----0-0-----|-0-0-----0-0------|


  E5  G5            E5  G5              E5  G5
  E E E E E E E E   E E E E E E E E     E E E E E E E E   E E E E E E E E   4x
|-----------------|-----------------||------------------|-------------------||
|-----------------|-----------------||o-----------------|------------------o||
|-----------------|-----------------||------------------|-------------------||
|-----------------|-----------------||------------------|-------------------||
|-2-2-5-5---5-5---|-2-2-5-5---5-5---||o-2-2-5-5---5-5---|-5-5---5-5---5-5--o||
|-2-2-5-5---5-5---|-2-2-5-5---5-5---||--2-2-5-5---5-5---|-5-5---5-5---5-5---||
|
| E E Q   E E Q     E E Q   E E Q       E E E E E E E E   E E E E E E E E   4x
|-----3-------3---|-----3-------9---||------------------|-------------------||
|-----2-------2---|-----2-------8---||o-----------------|------------------o||
|-----------------|-----------------||o-----------------|------------------o||
|-0-0-----0-0-----|-0-0-----0-0-----||--2-2-5-5---5-5---|-5-5---5-5---5-5---||


                          Chorus
  D5 D#5E5 G5  F#5 F5      E5F5E5   D5E5F5E5    D5
 6/4                      4/4
  Q  Q  Q   Q   Q   Q      S S E Q  S S S S S S S S
|----------------------||---------------------------|
|----------------------||o--------------------------|
|----------------------||---------------------------|
|----------------------||---------------------------|
|-0--1--2---5---4---3--||o-2-3-2----0-2-3-2-2-2-0-0-|
|-0--1--2---5---4---3--||--2-3-2----0-2-3-2-2-2-0-0-|
|
| Q  Q  Q   Q   Q   Q      S S E Q  S S S S S S S S
|-7--8--9--12--11--10--||---------------------------|
|-5--6--7--10---9---8--||o--------------------------|
|-5--6--7--10---9---8--||o--------------------------|
|----------------------||--2-3-2----0-2-3-2-2-2-0-0-|


  E5F5E5   D5E5F5E5    D5
  S S E Q  S S S S S S S S
|---------------------------|
|---------------------------|
|---------------------------|
|---------------------------|
|-2-3-2----0-2-3-2-2-2-0-0--|
|-2-3-2----0-2-3-2-2-2-0-0--|
|
| S S E Q  S S S S S S S S
|---------------------------|
|---------------------------|
|---------------------------|
|-2-3-2----0-2-3-2-2-2-0-0--|


  E5F5E5   D5E5F5E5    D5    E5F5E5C5/a D5  C       E5F5E5   D5E5F5E5    D5
  S S E Q  S S S S S S S S   S S E  Q   E E Q       S S E Q  S S S S S S S S
|--------------------------|---------------------||---------------------------|
|--------------------------|--------------------o||---------------------------|
|--------------------------|----------------3\---||---------------------------|
|--------------------------|----------------2\---||---------------------------|
|-2-3-2----0-2-3-2-2-2-0-0-|-2-3-2-10S==0-0-1\--o||-2-3-2----0-2-3-2-2-2-0-0--|
|-2-3-2----0-2-3-2-2-2-0-0-|-2-3-2-10S==0-0------||-2-3-2----0-2-3-2-2-2-0-0--|
|
| S S E Q  S S S S S S S S   S S E  Q   E E Q       S S E Q  S S S S S S S S
|--------------------------|----------------9\---||---------------------------|
|--------------------------|----------------8\--o||---------------------------|
|--------------------------|--------3\----------o||---------------------------|
|-2-3-2----0-2-3-2-2-2-0-0-|-2-3-2------0-0------||-2-3-2----0-2-3-2-2-2-0-0--|


                       Outro
  E5F5E5     E5F5E5     E5          D5  E5F5E5
 2/4                   4/4
  S S E Q    S S E Q    S S S S S S S S S S E Q
|----------|----------|--------------------------|
|----------|----------|--------------------------|
|----------|----------|--------------------------|
|----------|----------|--------------------------|
|-2-3-2----|-2-3-2----|-2-2-2-2-2-2-0-0-2-3-2----|
|-2-3-2----|-2-3-2----|-2-2-2-2-2-2-0-0-2-3-2----|
|
| S S E Q    S S E Q    S S S S S S S S S S E Q
|----------|----------|--------------------------|
|----------|----------|--------------------------|
|----------|----------|--------------------------|
|-2-3-2----|-2-3-2----|-2-2-2-2-2-2-0-0-2-3-2----|


  E5          D5  E5F5E5     E5          D5  E5F5E5C5/a
  S S S S S S S S S S E Q    S S S S S S S S S S E  Q
|--------------------------|---------------------------|
|--------------------------|---------------------------|
|--------------------------|---------------------------|
|--------------------------|---------------------------|
|-2-2-2-2-2-2-0-0-2-3-2----|-2-2-2-2-2-2-0-0-2-3-2-10--|
|-2-2-2-2-2-2-0-0-2-3-2----|-2-2-2-2-2-2-0-0-2-3-2-10--|
|
| S S S S S S S S S S E Q    S S S S S S S S S S E  Q
|--------------------------|---------------------------|
|--------------------------|---------------------------|
|--------------------------|------------------------3--|
|-2-2-2-2-2-2-0-0-2-3-2----|-2-2-2-2-2-2-0-0-2-3-2-----|


  D5  C
 2/4      1/4    4/4
  E E Q    S E.   W
|--------|------|------*|
|--------|-x----|------*|
|-----3--|-x----|------*|
|-----2--|-x----|------*|
|-0-0-1--|------|------*|
|-0-0----|------|------*|
|
| E E Q    Q      W
|-----9--|------|------*|
|-----8--|-x----|------*|
|--------|-x----|------*|
|-0-0----|-x----|------*|


Duration Legend
---------------
W - whole; H - half; Q - quarter; E - 8th; S - 16th; T - 32nd; X - 64th; a - acciaccatura
+ - note tied to previous; . - note dotted; .. - note double dotted
Uncapitalized letters represent notes that are staccato (1/2 duration)
Irregular groupings are notated above the duration line
Duration letters will always appear directly above the note/fret number it represents the
duration for.  Duration letters with no fret number below them represent rests.  Multi-
bar rests are notated in the form Wxn, where n is the number of bars to rest for.  Low
melody durations appear below the staff

Tablature Legend
----------------
 h   - hammer-on
 p   - pull-off
 b   - bend
 pb  - pre-bend
 r   - bend release (if no number after the r, then release immediately)
 /\  - slide into or out of (from/to "nowhere")
 s   - legato slide
 S   - shift slide
  - natural harmonic
[n]  - artificial harmonic
n(n) - tapped harmonic
 ~   - vibrato
 tr  - trill
 T   - tap
 TP  - trem. picking
 PM  - palm muting
\n/  - tremolo bar dip; n = amount to dip
 \n  - tremolo bar down
 n/  - tremolo bar up
/n\  - tremolo bar inverted dip
 =   - hold bend; also acts as connecting device for hammers/pulls
 <>  - volume swell (louder/softer)
 x   - on rhythm slash represents muted slash
 o   - on rhythm slash represents single note slash

Misc Legend
-----------
 |  - bar
||  - double bar
||o - repeat start
o|| - repeat end
*|  - double bar (ending)
 :  - bar (freetime)
 $  - Segno
 &  - Coda
Tempo markers -  = BPM(8/16=s8/s16), where s8 = swing 8ths, s16 = swing 16ths