Mudvayne - Dig Chords & Tabs

 

Dig Chords & Tabs

Mudvayne Chords & Tabs

Version: 1 Type: Tab 0 ratings
1 star 2 stars 3 stars 4 stars 5 stars
comments

Dig Tab

#-----------------------------------------------------------------------------#
#-- File created with Instab - http://www.pconline.com/~smcarey/instab.html --#
#-----------------------------------------------------------------------------#

Author/Artist: Mudvayne
Title: Dig
Album: L.D. 50
Transcribed by: www.pharmaecopiaonline.tk
Email: www.pharmaecopiaonline.tk

www.pharmaecopiaonline.tk

------|-----|--------|-----------|--------------------|------------|----------
------|-----|--------|-----------|--------------------|------------|----------
------|-----|---21r--|---21r-----|--------------------|----------3-|----------
------|-----|--------|-----------|--------------------|----------2-|----------
-00-00|00-00|00-19r--|00-19r-----|--------------------|----------1-|----------
-00-00|00-00|00------|00------19\|-2/3-2---0-2-3-2-0-2|-2/3---00---|----------
                                                                              
[ Tab from: http://www.guitartabs.cc/tabs/m/mudvayne/dig_tab.html ]
----------------------------------------------------------------|-------------
----------------------------------------------------------------|-------------
---------------------------------------------/12-12-12-12-12-12-|-------------
----------------------------------------------------------------|-------------
-2-2-2-2-2-2-2--2-2-2-2-2-2-2--2-2-2-2-2-2-2/-10-10-10-10-10-10-|-------------
-2-2-2-2-2-2-2--2-2-2-2-2-2-2--2-2-2-2-2-2-2/-------------------|-------------
                                                                              

-------------|-------|-----------------------------------|------------|-------
-------------|-------|-----------------------------------|------------|-------
-------------|-------|-----------------------------------|------------|-------
-------------|-------|-----------------------------------|------------|-------
-0-1-2-5-4-3-|-------|--2-2-----5-----5-----5-----5-----5|-0-1-2-5-4-3|-------
-0-1-2-5-4-3-|-2/3-2-|--2-2-5/6-5-5/6-5-5/6-5-5/6-5-5/6-5|-0-1-2-5-4-3|-------
                                                                              

Comments