Mudvayne - Dig Everything And Nothing Remix Chords & Tabs

 

Dig Everything And Nothing Remix Chords & Tabs

Mudvayne Chords & Tabs

Version: 1 Type: Tab 0 ratings
1 star 2 stars 3 stars 4 stars 5 stars
comments

Dig Everything And Nothing Remix Tab

Artist: MuDvAYne
Song: Dig (everything and nothing remix)
Album: The Beggining of All Things to end
Tabbed By: Frank Tautolo


intro starts off with kud saying dig.

-----------------------------------------------------
-----------------------------------------------------
-----------------------------------------------------
-----------------------------------------------------
-----------------------------------------------------
-----------0-----0-------9----0----0------9----------

-----------------------------------------------------
-----------------------------------------------------
------------------------------------------------------
-----------------------------------------------------
-----------------------------------------------------
-----------0----0---9----0----0----9-----------------

-----------------------------------------------------
-----------------------------------------------------
-----------------------------------------------------
-----------------------------------------------------
-----------------------------------------------------
----------0-----0----9-----0-----0----9--------------
[ Tab from: http://www.guitartabs.cc/tabs/m/mudvayne/dig_everything_and_nothing_remix_tab.html ]
-----------------------------------------------------
-----------------------------------------------------
-----------------------------------------------------
-----------------------------------------------------
-----------------------------------------------------
-----0------0-----9----------9-----9-----10-----12---
Repeat 2x
--------------------------------------------------------------------
--------------------------------------------------------------------
--------------------------------------------------------------------
--------------------------------------------------------------------
--------------------------------------------------------------------
--3--2--0-2--0--0--3--2--3--2--0--2--0--0--3--2--0--0---3--2--0-0-9-

Just keep repeating this over and over when kud is singing.
-------------------------------------------------------------------
-------------------------------------------------------------------
-------------------------------------------------------------------
-------------------------------------------------------------------
--3--2--0--2--0--0--3--2--3-2-0--2---0-0--3--2--0--0--3--2---0--0--
--3--2--0--2--0--0--3--2--3-2-0--2---0-0--3--2--0--0--3--2---0--0-9

Just get the cd and listen to it and you will get it. This is my first
tab that i have done with a whole song, Usually i just do intro's, But 
this is my first tab i have finished.  A true mudvayne fan Frank Tautolo.
Comments