Mudvayne - Dig Chords & Tabs

 

Dig Chords & Tabs

Mudvayne Chords & Tabs

Version: 1 Type: Bass Tab 0 ratings
1 star 2 stars 3 stars 4 stars 5 stars
comments

Dig Bass Tab

Tabbed by - Schem [Schemma@aol.com] [http://www.twistedinc.com]
Artist - Mudvayne
Song - Dig
Album - L.D. 50
[updated March 31st, 2001]

My old tab for DIG was in the wrong tuning, and ended up being a step off in most of the song

Although Ryknow plays on a 5-string [G C G C F] you can play it fine on a 4-string tuned to
drop-d minus 1 step [C G C F]. The best eq for this is keeping your low-end much louder than
your high-end, and having the volume fairly low if you're playing with guitar.

T - Slapped
S - Popped
() - Muted Pop [don't let the note ring out]


+- INTRO ----+
 x8
F|------8-|-
C|--------|-
G|--------|-
C|--x-x---|-
    S S P
-------------+

+- CHORUS - [0:14] -----------------------------------------+ 
 x1    x3            x1      x1    x3            x1
F|-----|-------------|-----8-|-----|-------------|-----8-|-
C|-----|-------------|-------|-----|-------------|-------|-
G|-----|-------------|--6-6--|-----|-------------|--6-6--|-
C|-232-|-00223-023-2-|-------|-232-|-00223-023-2-|-------|- 
                       S S P                       S S P ^[this section NOT played at 1:31]
+-----------------------------------------------------------+

+- VERSE - [0:35]---------------------------------------------------+
[ Tab from: http://www.guitartabs.cc/tabs/m/mudvayne/dig_btab.html ]
 x3                     x1
F|----8---(8)---(6)-----|--------------------------------|-
C|----------------------|--------------------------------|-
G|-/6----6---6-6---6-6--|--------------------------------|-
C|----------------------|---0/10-10-10-10-10-10-10-10-10-|-
    S P  S P S S P S S                ^^[ notes played rapidly ]

 x3                     x1
F|----8---(8)---(6)-----|-----8--(8)--(6)(8)(6)(6)(8)----|-
C|----------------------|--------------------------------|-
G|-/6----6---6-6---6-6--|-6-6---6---6---x--x--x--x-------|-
C|----------------------|--------------------------------|-
    S P  S P S S P S S    S S P S P S P S PS PS PS P         

+--------------------------------------------------------------------+

+- BRIDGE 1 - [1:31] ---+
 x1
F|-------------------|-
C|-------------------|-
G|---4-5-6-9-8-7-----|-
C|-------------------|-

+-----------------------+

+- BRIDGE 2 - [1:34] ----+
 x4    x4
F|-----|--------------|-
C|-----|--------------|-
G|-----|--------------|-
C|-3-2-|-232-x-x-xxxx-|-

+------------------------+

+- BREAKDOWN - [1:51] ---+
 x8      x4
F|-----8-|----------------------------|-
C|-------|----------------------------|-
G|-6-6---|----------------------------|-
C|-------|--5-6---5-6---6-6---6-5-6-6-|-
   S S P
+------------------------+  

[0:00] - INTRO
[0:14] - CHORUS x2
[0:35] - VERSE
[0:49] - CHORUS
[1:03] - VERSE
[1:18] - CHORUS
[1:31] - BRIDGE 1
[1:34] - BRIDGE 2
[1:51] - BREAKDOWN
[2:12] - BRIDGE 1
[2:15] - CHORUS x2

I am 99% sure this is the style all the sections are played in. If you know anything is wrong
you should be able to use this as a guideline.

Comments