Mudvayne - Determined Chords & Tabs

 

Determined Chords & Tabs

Mudvayne Chords & Tabs

Version: 1 Type: Bass Tab 0 ratings
1 star 2 stars 3 stars 4 stars 5 stars
comments

Determined Bass Tab

   
This is my bass tabs for "Determined"

Artist: Mudvayne
Song: Determined
Instrument: Bass
Tuning:    C G C F  (Low to High)

~ Vibrato
/ Slide up
\ Slide down
// Shift Slide


Intro  (0:00)
[-----------|-----------|-----------|----------------]
[-----------|-----------|-----------|----------------]
[-----------|-----------|-----------|----------------]
[2222-------|2222-------|2222-------|2222-0//15\\0---]

(0:08)
[------------------]
[------------------]
[------------------]
[-2222333355558888-]

Chorus   (0:15)
[----------------------------------]X3
[----------------------------------]
[----------------------------------]
[-0-3-0-3-0-3-0-3/6-0----0-6-0-8~--]

[-----------------------------------]X1
[-----------------------------------]
[-----------------------------------]
[-0-3-0-3-0-3-0-3/6-0----0-6-0-8//--]

Verse (0:30)
[----------------------------------------]    \
[----------------------------------------]     \
[-----------------------x-----x----------]      \
[-2222---0-2-0--2220-/8-x-0-7---8-7-9//--]       \
                                                  \
[-----------------------------------------------]  \   
[-----------------------------------------------]    Repeat
[----------------------7-------7---8------------]  /  twice
[-2222--0-0/8--2220---x--8-x-6---8----9//-------] /



[ Tab from: http://www.guitartabs.cc/tabs/m/mudvayne/determined_btab.html ]
(1:30)
[----------------------------------]
[----------------------------------]
[----------------------------------]
[-2222--002222--00222200777755-0--]

[----------------------------------]
[----------------------------------]
[----------------------------------]
[-2222--002222--00222200777755-0--]

[----------------------------------]
[----------------------------------]
[----------------------------------]
[-2222--0-2222--0-2222-0-777755-0--]

[----------------------------------]
[----------------------------------]
[----------------------------------]
[-2222--0-2222--0-2222-0-777755-0--]

(1:45)
[-------------------------------------]
[-------------------------------------]
[-------------------------------------]
[-2222---5202--5202--52025202520202--]

[------------------------------------]
[------------------------------------]
[------------------------------------]
[-2-2--5202--5202----2-2--5202--5202-]

[----------------------------------]	  
[----------------------------------]
[----------------------------------]
[-2-2-0250202---22887755-----------]

Intro To Chorus  (1:53)
[-----------|-----------|-----------|----------------]
[-----------|-----------|-----------|----------------]
[-----------|-----------|-----------|----------------]
[2222-------|2222-------|2222-------|2222-0//15\\0---]

well im sure thats how it goes but im not 100% sure
Comments