Mudvayne - Death Blooms Chords & Tabs

 

Death Blooms Chords & Tabs

Mudvayne Chords & Tabs

Version: 8 Type: Tab 0 ratings
1 star 2 stars 3 stars 4 stars 5 stars
comments

Death Blooms Tab

   
Author/Artist: MuDvAyNe
Title: Death Blooms
Album: L.D 50
Transcribed by: Josh Minnish 
Email: ibanezjoshm@hotmail.com

THIS IS PERFECT SO HAVE FUN!

TUNING=DROP D,DOWN 1 1/2 STEPS B,F#,B,E,G#,C#

*Natural Harmonic

-|--------------------------------------------|
-|--------------------------------------------|
-|-----------------*7*-------*7*-------*7*----|
-|-3-2-2-3-2-2-2-2----*7*-------*7*-------*7*-|
-|-3-2-2-3-2-2-2-2-------*7*-------*7*--------|
-|-3-2-2-3-2-2-2-2----------------------------|
  Intro                                                                       

-|---------------------------------|
-|---------------------------------|
-|---------------------------------|
-|-0-7-8-0-7-8-0-7-8-0-5-0-3-5-3-0-|
-|-0-7-8-0-7-8-0-7-8-0-5-0-3-5-3-0-|
-|-0-7-8-0-7-8-0-7-8-0-5-0-3-5-3-0-|
  Main Riff                                                                   

-|-----------------|
-|-----------------|
-|-----------------|
-|-3-2-2-3-5-0-2-2-|
-|-3-2-2-3-5-0-2-2-|
-|-3-2-2-3-5-0-2-2-|
  Fill                                                                        

-|-------------|
-|-------------|
-|-------------|
-|-------------|
-|-3-----3-----|
-|---2-2---2-2-|
  Verse                                                                       

-|---------------------------------|
-|---------------------------------|
-|---------------------------------|
-|-3-2-2-3-2-2-3-2-2-3-2-2-3-2-0-0-|
-|-3-2-2-3-2-2-3-2-2-3-2-2-3-2-0-0-|
-|-3-2-2-3-2-2-3-2-2-3-2-2-3-2-0-0-|
  Bridge                                                                      

-|------------------------------------------|
-|------------------------------------------|
-|-14--12-----------------------------------|
-|-12--10---0-7-8-0-7-8-0-7-8-0-5-0-3-5-3-0-|
-|-12--10---0-7-8-0-7-8-0-7-8-0-5-0-3-5-3-0-|
-|-12--10---0-7-8-0-7-8-0-7-8-0-5-0-3-5-3-0-|
  Chorus                                                                      

-|--------------------------------------------|
-|--------------------------------------------|
-|-14--12--10---------------------------------|
-|-12--10---8-0-7-8-0-7-8-0-7-8-0-5-0-3-5-3-0-|
-|-12--10---8-0-7-8-0-7-8-0-7-8-0-5-0-3-5-3-0-|
-|-12--10---8-0-7-8-0-7-8-0-7-8-0-5-0-3-5-3-0-|
                                                                              

-|---------------|
-|---------------|
-|-14--12--10----|
-|-12--10---8--0-|
-|-12--10---8--0-|
-|-12--10---8--0-|
  Fill 2                                                                      

-|----------------------------|
-|----------------------------|
-|----------------------------|
-|----------------------------|
-|-8-0-2-3-2-0-8-0-2-3-2-0--0-|
-|-8-0-2-3-2-0-8-0-2-3-2-0--0-|
  Interlude {Palm Mute}                                                       

-|------------------------------------------|
-|------------------------------------------|
-|------------------------------------------|
-|------------------------------------------|
-|-3--2-0-2-0-2-3--2-0-2-0-3--2-0-2-0-0-3-3-|
-|-3--2-0-2-0-2-3--2-0-2-0-3--2-0-2-0-0-3-3-|
  Interlude 2                                                                 

-|----------------------------------------|
-|----------------------------------------|
-|-14-12-11-------------------------------|
-|-12-10--9-------------------------------|
-|-12-10--9--2p0-0-0--2p0-0-3p0-0-2p0-0-0-|
-|-12-10--9--2p0-0-0--2p0-0-3p0-0-2p0-0-0-|
  Interlude 3                                                                 
[ Tab from: http://www.guitartabs.cc/tabs/m/mudvayne/death_blooms_tab_ver_8.html ]
-|------------------------------------------|
-|------------------------------------------|
-|------------------------------------------|
-|------------------------------------------|
-|-2p0-0-3p0-0-2p0-0-0--2p0-0-3p0-0-2p0-0-0-|
-|-2p0-0-3p0-0-2p0-0-0--2p0-0-3p0-0-2p0-0-0-|
  Interlude 4                                                                 

-|------------------------------------------------------|
-|------------------------------------------------------|
-|------------------------------------------------------|
-|------------------------------------------------------|
-|-2p0-0-3p0-0-2p0-0-0-xx-10-2p0--0-3p0-0-2p0-0-0-xx-10-|
-|-2p0-0-3p0-0-2p0-0-0-xx-10-2p0--0-3p0-0-2p0-0-0-xx-10-|
  Interlude 5                                                                 

-|--------------------------------------------------------------|
-|--------------------------------------------------------------|
-|--------------------------------------------------------------|
-|--------------------------------------------------------------|
-|-00-0-0-0-0-32-0-0-10-32235020-0-0-3235-00-0-0-10-32235022----|
-|-00-0-0-0-0-32-0-0-10-32235020-0-0-3235-00-0-0-10-32235022----|
  Outro                                                         

-|-----------------------------------------------------|
-|-----------------------------------------------------|
-|-----------------------------------------------------|
-|-----------------------------------------------------|
-|-00-0-0-0-0-32-0-0-10-32235020-0-0-3235-00-0-0-10----|
-|-00-0-0-0-0-32-0-0-10-32235020-0-0-3235-00-0-0-10----|
  After Last Chord Get the FeedBack Going!!!

{Lyrics}

Cold seems crippling lame meander through corridors aroma's 
thick with age mark off the day reflections of my life are fading 

Pull me out of body don't want it don't want in,
Feeble frail and rotting descending I'm lost in,
A structure that's collapsing don't want it cast into,
Maker take the body don't want it wants me 

Past has found its place salvation is no more will god accept my 
peace bleached will pardon me reflections of my life are fading
Pull me out of body don't want it don't want in,
Feeble frail and rotting descending I'm lost in,
A structure that's collapsing don't want it cast into,
Maker take the body don't want it wants me 

I just want to run fly kites wrestle jump and play 
Swim through waves that crash to shore memories in me 
cocooned in misery 

I'm sick and tired of embracing reflections of past time receive
 me or cast me away 
...god please take me away 
resistance futile suicidal ideas I will crucify my own being satisfy 
selfish needs fuck the deities justify my own right to what's waiting for me 

On the other side the time has come lock and load I'm coming I'm coming 
I'm coming I'm coming home 

Pull me out of body don't want it don't want in,
Pull me out of body don't want it don't want in,
Pull me out of body don't want it don't want in,
Feeble frail and rotting descending I'm lost in,
A structure that's collapsing descending don't want it,
Maker take the body don't want it wants me,
Pull me out of body don't want it don't want in,
Feeble frail and rotting descending I'm lost in,
A structure that's collapsing descending don't want it,
Maker take the body don't want it wants me 

I just want to run fly kites wrestle jump and play 
Swim through waves that crash to shore memories in me 
cocooned in misery 
The darkness overcomes soul soars to the other plain 
Existence past the door I sail through purgatory's bay 

I asked a god for poison cradle me sown to my dreams souls searching death blossoms 
where clouds lie over me held in god's hands death blooming

Dark for fear of failure an inner gloom as wide as an eye 
and fermenting roiling hate death grip in my veins unveiling rancid petals 
flowering forth foul nectar the space between a blink and a tear 
...death blooms.
Comments