Mudvayne - Death Blooms Chords & Tabs

 

Death Blooms Chords & Tabs

Mudvayne Chords & Tabs

Version: 7 Type: Tab 0 ratings
1 star 2 stars 3 stars 4 stars 5 stars
comments

Death Blooms Tab

   
Song: "Death Blooms"
Artist: Mudvayne
Album: L.D. 50
Transcribed By: thomas hassler

Tuning: Drop D, Down 1 1/2 Steps (B,F#,B,E,G#,C#)

<> - harmonics
*  - palm mute

INTRO:
|------------------------------------------|
|------------------------------------------|
|------------------------------------------|
|-3-2-2-3-2-2-2-2-<5><7>---<5><7>---<5><7>-|
|-3-2-2-3-2-2-2-2-------<7>------<7>-------|
|-3-2-2-3-2-2-2-2--------------------------|
  * * * * * * * *

MAIN RIFF:
|---------------------------------|
|---------------------------------|
|---------------------------------|
|-0-7-8-0-7-8-0-7-8-0-5-0-3-5-3-0-|
|-0-7-8-0-7-8-0-7-8-0-5-0-3-5-3-0-|
|-0-7-8-0-7-8-0-7-8-0-5-0-3-5-3-0-|

FILL:
|-----------------|
|-----------------|
|-----------------|
|-3-2-2-3-5-0-2-2-|
|-3-2-2-3-5-0-2-2-|
|-3-2-2-3-5-0-2-2-|

VERSE:
|-------------|
|-------------|
|-------------|
|-------------|
|-3-----3-----|
|---2-2---2-2-|

BRIDGE:
|---------------------------------|
|---------------------------------|
|---------------------------------|
|-3-2-2-3-2-2-3-2-2-3-2-2-3-2-0-0-|
|-3-2-2-3-2-2-3-2-2-3-2-2-3-2-0-0-|
|-3-2-2-3-2-2-3-2-2-3-2-2-3-2-0-0-|

CHORUS:
|------------------------------------------|
|------------------------------------------|
|-14--12-----------------------------------|
|-12--10---0-7-8-0-7-8-0-7-8-0-5-0-3-5-3-0-|
|-12--10---0-7-8-0-7-8-0-7-8-0-5-0-3-5-3-0-|
|-12--10---0-7-8-0-7-8-0-7-8-0-5-0-3-5-3-0-|

|--------------------------------------------|
|--------------------------------------------|
|-14--12--10---------------------------------|
|-12--10---8-0-7-8-0-7-8-0-7-8-0-5-0-3-5-3-0-|
|-12--10---8-0-7-8-0-7-8-0-7-8-0-5-0-3-5-3-0-|
|-12--10---8-0-7-8-0-7-8-0-7-8-0-5-0-3-5-3-0-|

FILL 2:
|---------------|
|---------------|
|-14--12--10----|
|-12--10---8--0-|
|-12--10---8--0-|
|-12--10---8--0-|
[ Tab from: http://www.guitartabs.cc/tabs/m/mudvayne/death_blooms_tab_ver_7.html ]
INTERLUDE: 
|------------------------------|
|------------------------------|
|------------------------------|
|------------------------------|
|-8-0-2-3-2-0-8-0-2-3-2-0--0-0-|
|-8-0-2-3-2-0-8-0-2-3-2-0--0-0-|
PM  * * * * *   * * * * *  
INTERLUDE 2:
|------------------------------------------|
|------------------------------------------|
|------------------------------------------|
|------------------------------------------|
|-3--2-0-2-0-2-3--2-0-2-0-3--2-0-2-0-0-3-3-|
|-3--2-0-2-0-2-3--2-0-2-0-3--2-0-2-0-0-3-3-|

INTERLUDE 3:
|-------------------------------|
|-------------------------------|
|-14-12-12----------------------|
|-12-10--9----------------------|
|-12-10-10--2p0-0-3p0-0-2p0-0-0-|
|-12-10-----2p0-0-3p0-0-2p0-0-0-|

INTERLUDE 4:
|------------------------------------------|
|------------------------------------------|
|------------------------------------------|
|------------------------------------------|
|-2p0-0-3p0-0-2p0-0-0--2p0-0-3p0-0-2p0-0-0-|
|-2p0-0-3p0-0-2p0-0-0--2p0-0-3p0-0-2p0-0-0-|

INTERLUDE 5:
|---------------------------------------------------|
|---------------------------------------------------|
|---------------------------------------------------|
|------------------------5------------------------5-|
|-2p0-0-3p0-0-2p0-0-0-XX-3-2p0-0-3p0-0-2p0-0-0-XX-3-|
|-2p0-0-3p0-0-2p0-0-0-XX---2p0-0-3p0-0-2p0-0-0-XX---|

OUTRO:
|--------------------------------------------------------|
|--------------------------------------------------------|
|--------------------------------------------------------|
|-------------------5-------------------------5----------|
|-00-0-0-0-0-32-0-0-3-32235020-0-0-3235-00-0-03-32235022-|
|-00-0-0-0-0-32-0-0---32235020-0-0-3235-00-0-0--32235022-|
           **                              *

|-----------------------------------------------|
|-----------------------------------------------|
|---------------------------------------------0-|
|-------------------5-------------------------5-|
|-00-0-0-0-0-32-0-0-3-32235020-0-0-3235-00-0-03-|
|-00-0-0-0-0-32-0-0---32235020-0-0-3235-00-0-0--|
           **                              *

Comments