Mudvayne - Death Blooms Chords & Tabs

 

Death Blooms Chords & Tabs

Mudvayne Chords & Tabs

Version: 6 Type: Tab 0 ratings
1 star 2 stars 3 stars 4 stars 5 stars
comments

Death Blooms Tab

Pic Harmonics = ( )
[ Tab from: http://www.guitartabs.cc/tabs/m/mudvayne/death_blooms_tab_ver_6.html ]
-------------------------------------------------
-------------------------------------------------
------------------(7--7--7)----------------------
-------------------(7--7--7)--------------------- <---4x
--------------------(7--7)-----------------------
-3-2-2-2--3-2-2-2--------------------------------

-------------------------------------------------
-------------------------------------------------
-------------------------------------------------
-0-7-8-0-7-8-0-7-8-0-5-3-5-2-0------------------- <---3x
-0-7-8-0-7-8-0-7-8-0-5-3-5-2-0-------------------
-0-7-8-0-7-8-0-7-8-0-5-3-5-2-0-------------------
Comments