Mudvayne - Death Blooms Chords & Tabs

 

Death Blooms Chords & Tabs

Mudvayne Chords & Tabs

Version: 1 Type: Tab 1 rating
1 star 2 stars 3 stars 4 stars 5 stars
comments

Death Blooms Tab

----------9-8-7-9-8-7-9-7--------------------------------
----------9-8-7-9-8-7-9-7--------------------------------
---------------------------------------------------------
---------------------------------------------------------
---------------------------------------------------------
-00000000------------------------------------------------


---------------------------------
---------------------------------
---------------------------------
--0-4-5-0-4-5-0-4-5-0-4-0-2-4-2-0
--0-4-5-0-4-5-0-4-5-0-4-0-2-4-2-0
--0-4-5-0-4-5-0-4-5-0-4-0-2-4-2-0


---------------------------------------
---------------------------------------
---------------------------------------
----------9-77-9-77-----------9-77-9-77
----------9-77-9-77-----------9-77-9-77
-00000000-9-77-9-77-----------9-77-9-77


---------------------------------
---------------------------------
---------------------------------
--0-4-5-0-4-5-0-4-5-0-4-0-2-4-2-0
--0-4-5-0-4-5-0-4-5-0-4-0-2-4-2-0
--0-4-5-0-4-5-0-4-5-0-4-0-2-4-2-0

[ Tab from: http://www.guitartabs.cc/tabs/m/mudvayne/death_blooms_tab.html ]
---------------------------------------
---------------------------------------
---------------------------------------
----------9-77-9-77-----------9-77-9-77
----------9-77-9-77-----------9-77-9-77
-00000000-9-77-9-77-----------9-77-9-77


-------------------------
-------------------------
-------------------------
-5--7--9---0--5--7-------
-5--7--9---0--5--7-------
-3--5--7---0--3--5-------


-----------------------------------------------
-----------------------------------------------
-----------------------------------------------
-----------------------------------------------
-023232020-0232023224--023202032p44------------
-023232020-0232023224--023202032p44------------


-------------------------
-------------------------
-9--7--5-----------------
-9--7--5-----------------
-9--7--5--02320----------
----------02320----------


-------------------------
-------------------------
-------------------------
-5--7--9---0--5--7-------
-5--7--9---0--5--7-------
-3--5--7---0--3--5-------


end with:


-------------------------
-------------------------
-------------------------
-2------------------------
-2------------------------
-0------------------------ 
Comments