Mudvayne - Cultivate Chords & Tabs

 

Cultivate Chords & Tabs

Mudvayne Chords & Tabs

Version: 1 Type: Tab 0 ratings
1 star 2 stars 3 stars 4 stars 5 stars
comments

Cultivate Tab

Artist: MudVayne
Album: Kill i oughtta
Song: Cultivate
Tabbed by: Kommon (faimilyval@aol.com)


intro x4
----------------------------------------------------------------------
----------------------------------------------------------------------
----------------------------------------------------------------------
----------------------------------------------------------------------
----------------------------------------------------------------------
0-2-0-3-0-2-0-3-2-0-3-2-----------------------------------------------

intro x4
----------------------------------------------------------------------
----------------------------------------------------------------------
----------------------------------------------------------------------
-0-2-0-3-0-2-0-3-2-0-3-2----------------------------------------------
-0-2-0-3-0-2-0-3-2-0-3-2----------------------------------------------
-0-2-0-3-0-2-0-3-2-0-3-2----------------------------------------------

intro x4
----------------------------------------------------------------------
----------------------------------------------------------------------
0-2-0-3-0-2-0-3-2-0-3-2-----------------------------------------------
0-2-0-3-0-2-0-3-2-0-3-2-----------------------------------------------
0-2-0-3-0-2-0-3-2-0-3-2-----------------------------------------------
----------------------------------------------------------------------
[ Tab from: http://www.guitartabs.cc/tabs/m/mudvayne/cultivate_tab.html ]
intro x4
----------------------------------------------------------------------
----------------------------------------------------------------------
----------------------------------------------------------------------
-0-2-0-3-0-2-0-3-2-0-3-2----------------------------------------------
-0-2-0-3-0-2-0-3-2-0-3-2----------------------------------------------
-0-2-0-3-0-2-0-3-2-0-3-2----------------------------------------------

verse1
----------------------------------------------------------------------
----------------------------------------------------------------------
----------------------------------------------------------------------
-5-4-3/2-1-2/3-4------------------------------------------------------
-5-4-3/2-1-2/3-4------------------------------------------------------
-5-4-3/2-1-2/3-4------------------------------------------------------

growling solo part
-4-3-2-3-4-3/2--------------------------------------------------------
----------------------------------------------------------------------
----------------------------------------------------------------------
----------------------------------------------------------------------
----------------------------------------------------------------------
----------------------------------------------------------------------

this song is mostly bass and only has three parts the intro is played 
threw-out most of the breaks along with the verse but the main versus
are just bass guitar
very easy to figure out what goes where pretty easy song



Comments