Mudvayne - Cradle Chords & Tabs

 

Cradle Chords & Tabs

Mudvayne Chords & Tabs

Version: 1 Type: Tab 0 ratings
1 star 2 stars 3 stars 4 stars 5 stars
comments

Cradle Tab

   
Mudvayne 
Cradle 
Tabed by ATS

Guitar is tuned: B F# B E C# G#   (p=pull off) 

Intro and verse 

G# ----------------------------------------------------------- 
C# ----------------------------------------15 15 15 15----- 
E ------------------------------------------------------------ 
B 13p12 12 13p12 12 13p12 12 13p12---------------------- 
F#------------------------------------------------------------ 
B------------------------------------------------------------- 

Heavy (chorus and at end) 

G#-------------------------------------------------------------- 
C#------------------------------------------------------------- 
E ------------------------------------7--------------------------- 
B ---------------------------------------------------------------- 
F# -----------------------------------5--------------------------- 
B --1-0-0-1-0-0-0-----1-0-0-1-0 ------------------------------- 

Verse 
Heavy 

bridge 
[ Tab from: http://www.guitartabs.cc/tabs/m/mudvayne/cradle_tab.html ]
G#-------------------------------------------------------------- 
C#------------------------------------------------------------- 
E --------------------------------------------------------------- 
B ---------------------------------------------------------------- 
F# -------------------------------------------------------------- 
B 1-0-0----1- 0- 0----1- 0- 0---1-0-0---1-0-0-------------- 


G#-------------------------------------------------------------- 
C#------------------------------------------------------------- 
E --------------------------------------------------------------- 
B ---------------------------------------------------------------- 
F# 3-2-0-3-2-0-3-2-0-x-11/12 12/13-3-2-0-3-2-0 x x 3\5 x x x x x x x 
B   3-2-0-3-2-0-3-2-0-x-11/12 12/13-3-2-0-3-2-0 x x 3\5 x x x x x x x 

Bridge 

build-up 
G#-------------------------------------------------------------- 
C#------------------------------------------------------------- 
E --------------------------------------------------------------- 
B ---------------------------------------------------------------- 
F# ---------------3-----5------6-5------------------------------------------ 
B 0-3-4-0-4-0--0-4---4-0------4(bend)------------------------------------- 


"Everbody leaves me...." 

E 7-7-7-7-7-7-7-7-7-7-7-7-7-7-7-7-7-7-7-7-7-7-7-7-7 (you get the point) 

"Heavy build-up" (this is a guess, too) 

F# 0-3-4-0-4-0-3-0-4-5-4-0-6-5-4 
B 0-3-4-0-4-0-3-0-4-5-4-0-6-5-4 

The yell part 

F# 0---3---5---0--0--6\5-0 
B   0---3---5---0--0--6\5-0    do this three times 

Pause part 

F# 0---3---5---x-x---x-x 
B   0---3---5---x-x---x-x 


Verse 

Heavy 

Bridge 

Fast Part 

Comments