Mudvayne - Cradle Chords & Tabs

 

Cradle Chords & Tabs

Mudvayne Chords & Tabs

Version: 1 Type: Bass Tab 0 ratings
1 star 2 stars 3 stars 4 stars 5 stars
comments

Cradle Bass Tab

   
Cradle
for more tabs: go.to/tab_zone
5 string (B E A D G)

I don't play bass, so do NOT gripe at me if it's wrong. I simply provide this to help you guys out.

(+ = slapped notes . = popped notes)

riff 1:(0:36; 1:12)
G ----------------------------
D ----------------------------
A --------------------------3-
E ----------------------------
B --2P0-0-1P0-0-0-2P0-0-1P0---

after that you just hit the open B along with the bass drum
[ Tab from: http://www.guitartabs.cc/tabs/m/mudvayne/cradle_btab.html ]
riff 2:(1:24;1:55; 4:04)
G ---------------------------5/--
D -------------------------------
A -------------------------------
E -------------------------------
B --0-1-0-1-0-1-0-1-0-1-0-1------
                             .   
riff 3:(1:36; 4:47)
G ----------------------------------------------------------
D -------------------7/9---7/10-----------------------------
A ----------------------------------------------------------
E -------------------5/7---5/8----------x-x-x-x-------------
B -3-2-0-2-3-0-3\5-0-----0------3-2-0-3-x-x-x-x-4H5-5H6-x-x-
                                        + + + +
riff 3 cont.
G ---------------------------------------------------------
D -------------------7/9---7/10----------------------------
A ---------------------------------------------------------
E -------------------5/7---5/8----------x-x-x-x-----x-x-x-x
B -3-2-0-2-3-0-3\5-0-----0------3-2-0-3-x-x-x-x-4H5-x-x-x-x
                                        + + + +     + + + +
riff 4:(2:15)
G --------------------------------
D --------------------------------
A --------------------------------
E --------------------------------
B --0-2-3-0-3-4-7-0-4-5-7-5-8/7-6
>   + + + + + + + + + + + + + + +

riff 5:(2:34)
G ------------------------------
D ------------------------------
A ------------------------------
E ------------------------------
B -0-2-3-0-3-4-5-0-4-5-6-5-6-5-3

riff 6:(2:45)
G -------------------------------
D -------------7-----------------
A -------------------------------
E -------------------------------
B -0-2-3-0-3-4---0-4-5-6-5-6-5-3-
>  + + + + + + . + + + + + + + +

riff 7:(2:56)
G ----------------------
D ----------------------
A ----------------------
E ----------------------
B -0--3--5--0--0-6P5--0-

riff 8:(3:08)
G --4-/-7-/-9-------
D ------------------
A --2-/-5-/-7-------
E ------------------
B -----------0-3-5-3

riff 9:(3:40)slap it 4x's then play it regular(lightly) 4x's
then go back to riff 2
G ------------------------
D ------------------------
A -------2H3-3P2----------
E --3P2-----------2-2-2--2
B ------------------------
>   + +  + + + +  + + +  +

riff 10:(4:42 then go back to riff 3)

G ----------------
D ----------------
A ----------------
E ----------------
B -6-5-4-0-5-4-3-0


Comments