Mudvayne - Choices Chords & Tabs

 

Choices Chords & Tabs

Mudvayne Chords & Tabs

Version: 1 Type: Bass Tab 0 ratings
1 star 2 stars 3 stars 4 stars 5 stars
comments

Choices Bass Tab

   
Band- Mudvayne
Song- Choices

Tuning: C-G-C-F

Intro
--------------------------------------------------|
--------------------------------------------------|
2---------2--------------2---------2--------------|
-3-2-1^-0--3-2-1^-0-000---3-2-1^-0--3-2-1^-0-234--|

the first "we dont have a choice, anymore anyway" part
----------|---------------------|-----------------------|--------------------------------|
1~-3~-4~--|---1~-1/4\3--3/6\4~--|---1~-----3~-4~-4/6-4--|---1~~----3--4~--4-4-6-4-3h4-3--|
----------|---------------------|------1-1---1----------|------1-1---1-------------------|
----------|---------------------|-----------------------|--------------------------------|

------3--------------5--------------6---------------|--------3--------------5--------------6---/8-6-56--|
1--1-1-1--(1)--3--3-3-3-3--(3)--4--4-4--4---5~/10~--|--1--1-1-1--(1)--3--3-3-3--(3)--4--4-4-4-----------|
----------------------------------------------------|-------------------------------------------------8-|
----------------------------------------------------|---------------------------------------------------|
[ Tab from: http://www.guitartabs.cc/tabs/m/mudvayne/choices_btab.html ]
------3--------------5--------------6--------------|--------3--------------5--------------6--|
1--1-1-1--(1)--3--3-3-3--(3)--4--4-4-4---/6-4-34---|--1--1-1-1--(1)--3--3-3-3--(3)--4--4-4-4-|
------------------------------------------------0--|-----------------------------------------|
---------------------------------------------------|-----------------------------------------|


the second "we dont have a choice, anymore anyway) part

15~~-----15~~-----15~~---15~~-------------------|
13~~-----15~~-----16~~---16~~-------------------|
------------------------------------------------|
------------------------------------------------|

high part (thirteens and fifteens and sixteens)
15-15----15-15----15-15----15-15----15-15----15-15----15-15----15-15---|
-----13-------13-------15-------15-------16-------16-------16-------16-|
-----------------------------------------------------------------------|
-----------------------------------------------------------------------|

low part
-------------------------------------------------------|
-------------------------------------------------------|
1-1----1-1----1-1----1-1----1-1----1-1----1-1----1-1---|
---0------0------2------2------3------3------3------3--|
Comments