Mudvayne - -1 Chords & Tabs

 

-1 Chords & Tabs

Mudvayne Chords & Tabs

Version: 1 Type: Tab 0 ratings
1 star 2 stars 3 stars 4 stars 5 stars
comments

-1 Tab

   
Song: "-1"
Artist: Mudvayne
Album: L.D. 50
Transcribed By: thomas hassler

Tuning: Drop D, Down 1 1/2 Steps (B,F#,B,E,G#,C#)

VERSE:
|--------------------------------------------------------------------|
|--------------------------------------------------------------------|
|--------------------------------------------------------------------|
|-0-0-0-0-0-0-0-0-0-0-0-0-0-0--0--0--0-0-0-0-0-0-0-0-0-0-0-0-0-0-----|
|-8-8-8-8-8-8-8-8-8-8-8-8-8-8-/10-10-7-7-7-7-7-7-7-7-7-7-7-7-7-7-----|
|----------------------------------------------------------------7-7-|

CHORUS: 
|------------------------|
|------------------------|
|------------------------|
|-----7------------------|
|-3p0-5p0-3p0--3p0-0-0-0-|
|-3p0-----3p0--3p0-0-0-0-|

INTERLUDE: (no pause between space)
|-------------------|
|-------------------|
|-------------------|
|-------------------|
|-23235323-23235323-|
|-23235323-23235323-|
[ Tab from: http://www.guitartabs.cc/tabs/m/mudvayne/1_tab.html ]
INTERLUDE 2:
|--------------------------------------------------------------------|
|--------------------------------------------------------------------|
|--------------------------------------------------------------------|
|--------------------------------------------------------------------|
|-232353232323-XX-X-232353232323-XX-X-232353232323-XX-X-232353232323-|
|-232353232323-XX-X-232353232323-XX-X-232353232323-XX-X-232353232323-|

BRIDGE: (w/ effect)
|--------12-------------------------------------|
|-12--------12---12h13p12-10-----10---10-9h10p9-|
|----9---------9-------------9------9-----------|
|------9-----------------------9----------------|
|-----------------------------------------------|
|-----------------------------------------------|

CHORUS 2:
|---------------------------------------------------|
|---------------------------------------------------|
|---------------------------------------------------|
|-----7-------------------------7-------------------|
|-3p0-5p0-3p0--3p0-0--XX-X--3p0-5p0-3p0--3p0-0-XXXX-|
|-3p0-----3p0--3p0-0--XX-X--3p0-----3p0--3p0-0-XXXX-|

|----------------------------------------------------------------|
|----------------------------------------------------------------|
|----------------------------------------------------------------|
|-----7-------------------------7------------------------7-------|
|-3p0-5p0-3p0--3p0-0--XX-X--3p0-5p0-3p0--3p0-0-XX-X--3p0-5p0-3p0-|
|-3p0-----3p0--3p0-0--XX-X--3p0-----3p0--3p0-0-XX-X--3p0-----3p0-|
Comments