Mudvayne - -1 Chords & Tabs

 

-1 Chords & Tabs

Mudvayne Chords & Tabs

Version: 3 Type: Bass Tab 0 ratings
1 star 2 stars 3 stars 4 stars 5 stars
comments

-1 Bass Tab

Artist - Mudvayne
Title  - -1 (Negative One)
From   - L.ethal D.osage 50
Volt3r (Volt3r@mail.ru) ICQ = 228639154

h - hammeron
p - pulloff
/ - slide upwards
\ - slidedownwards
* - staccato (muting after picking)
x(X) - Death note
R - rest
pm - Palm muted
S(s) - slapping 
P(p) - popping
v - bend and release
^ - bend
H - hold
~ - vibrato
NOTE LENGHT
w - 1
h - 1/2
q - 1/4
e - 1/8
s - 1/16
t - 1/32
?.- dotted note (+ half of its own)

4str Bass
Tuning - BF#BE
Tempo 96

Verse and Chorus Riff.
             *       * *                *        * *
|-------------------------|---------------------------|
|4------------------------|---------------------------|
|4-----0h4----------------|------0h4------------------|
|--3p0-----3p0-3p0-0-0-0--|--3p0-----3p0-0-3p0-0-0-0--|
   s s s s s e.s s s e e.    s s s s s e s s s s e e.
             *       * *                 *
|---------------------------|---------------------------|
|4--------------------------|---------------------------|
|4-----0h4------------------|------0h4------------------|
|--3p0-----3p0-3p0-0-0-0-x--|--3p0-----3p0-0-3p0-0-0h3~-|
   s s s s s e.s s s e e s     s s s s s e s s e e s e

Bridge
[ Tab from: http://www.guitartabs.cc/tabs/m/mudvayne/1_btab_ver_3.html ]
|-----------------------------|
|4----------------------------|
|4-r--------------------------|
|----5p3-2h3-2h3-2h3-5p3-2h3--|
   q s s s s s s s s s s s s
|-----------------------------------|2x
|-----------------------------------|
|-----------------------------------|
|--2h3-2h3-5p3-2h3-2h3-2h3-5p3-2h3--|
   s s s s s s s s s s s s s s s s
|-----------------------------------|
|-----------------------------------|
|-----------------------------------|
|--2h3-2h3-5p3-2h3-2h3-2h3-5/7-7-7--|
   s s s s s s s s s s s s s s s s
|-----------------------------------|2x
|-----------------------------------|
|-----------------------------------|
|--2h3-2h3-5p3-2h3-2h3-2h3-5p3-2h3--|
   s s s s s s s s s s s s s s s s
|-----------------------------------|
|-----------------------------------|
|-----------------------------------|
|--2h3-2h3-5p3-2h3-2h3-2h3-5-5-5-5--|
   s s s s s s s s s s s s s s s s
|--------------------------x-x-x--|3x
|--------------------------x-x-x--|
|--------------------------x-x-x--|
|--2h3-2h3-5p3-2h3-2h3-2h3-x-x-x--|
   s s s s s s s s s s s s s e s
|--------------------------x-----|
|---------------------------x----|
|----------------------------x---|
|--2h3-2h3-5p3-2h3-2h3-2h3----x--|
   s s s s s s s s s s s s q

Interlude Riff

|---------------------|---------------------|
|4--------------------|---------------------|
|4---2h5-x------------|----2h5-x------------|
|--2-------3p2-x-2-2--|--2-------x-3p2-x-2--|
   e s s q s s s e e.    e s s e.s s s s q+s

Play Chorus riff tl end

Lyrics

Losses losers and more, gain of life's pleasures 
cohorts listen behind the doors.
to a life, meaningless, less than 0 in me, all my walls,
falling down, pains aloft, misery.
I'm sure that the lessons were learned. 
I'm sure that the punishments went well deserved. 
by the pawn, in the plan, taste of shit, bitterness,
walk from me, everything, systema - tically.

Come on youweretheone youweretheone,
To dredge up shit inside of me in my 
pointless life of nothing
Tell me what I'm supposed to be
Tell me who I'm supposed to be
Tell me what it takes to ascend
Tell me what it takes to live

Patience pleasures and rewards.
come in due time, stare at the sun I'm bored. 
in a life, meaningless, soaking up, all of me, 
like the cross you worship, life is loss, look at me. 
I'm sure that some day we'll wakeup, 
I'm sure that some day we'll wake from the dream.
Of success, and focus...,tunneling, to the light, 
glowing deep, inside of me, your taunting, I wake up.

Come on youweretheone youweretheone,
To dredge up shit inside of me 
in my pointless life of nothing
Tell me what I'm supposed to be
Tell me who I'm supposed to be
Tell me what it takes to ascend
Tell me what it takes to live
Tell me nOW!
Tell me nOW!

Pain misery distress dismal 
know where depressed idiot failure
In me......calling......
loser......man I'm the
Loser......loser.....loser......
in me......who I am....in me....

Don't feel sorry don't feel sorry for me
Don't need your sympathy or empathy, 
don't need your sympathy inside of me,
Don't need your sympathy or empathy, 
don't need your sympathy inside of me,
Don't feel sorry don't feel sorry for me

Come on
I know youweretheone youweretheone
Numb to feelings inside of me why I've seized my vision
Don't need you to tell me who to be
Don't need you to tell me what to be
Don't need you to tell me how to ascend
Don't need you to tell me how to live
Comments