Mudhoney - You Got It Chords & Tabs

 

You Got It Chords & Tabs

Mudhoney Chords & Tabs

Version: 1 Type: Chords 0 ratings
1 star 2 stars 3 stars 4 stars 5 stars
comments

You Got It Chords

   
			You Got It - Mudhoney
			Tabbed in Standard tuning.

Intro tab
-------------------
------7-5-------5--
----------6-4-6----
--4-4-------------- repeat until..
-------------------
-------------------


-----------------------------4-4-4-4-4-4-4-4-4-4-4-4-
--------------5-5-5-5-5-5-5-------------------------
-----------------------------------------------------
--4-4-4-4-4-4----------------------------------------
-----------------------------------------------------
----------------------------------------------------
[ Tab from: http://www.guitartabs.cc/tabs/m/mudhoney/you_got_it_crd.html ]
F#
They say you got it
E
I've seen you got it
G#
You got it
F#
You got it good
You got it
E
You can keep it
G#
That's right
F#
I don't want it

You give it away like free samples
I don't want what anyone can have
You got it
You got it
So what
E       F#       G#
Keep it outta my face
Keep it outta my face
Keep it outta my face
Keep it outta my face

Just cause you got it
You think everyone wants you 
You got it
You think that's enough
You got it
That's right you got it
You're fucked
Keep it outta my face
Keep it outta my face
Keep it outta my face
Keep it outta my face


Comments