Mudhoney - Touch Me Im Sick Chords & Tabs

 

Touch Me Im Sick Chords & Tabs

Mudhoney Chords & Tabs

Version: 1 Type: Tab 0 ratings
1 star 2 stars 3 stars 4 stars 5 stars
comments

Touch Me Im Sick Tab

Mudhoney- touch me im sick 1989
played w/gibson les paul

s= slide
[ Tab from: http://www.guitartabs.cc/tabs/m/mudhoney/touch_me_im_sick_tab.html ]
opening
--------------------------------------------------------------------
--------------------------------------------------------------------
--------------------------------------------------------------------
--------------------------------------------------------------------
------4-----4--4-----7--7----9---9----------------------------------
--2------2---2--s--5--5---7----7------------------------------------

verse
--------------------------------------------------------------------
--------------------------------------------------------------------
--------------------------------------------------------------------
--------------------------------------------------------------------
------9----9----9----9--9----7----7----7----7-----------------------
---7----7----7----7-------5----5----5----5--------------------------

              PLYMOUTH PROWLERS ARE THE BEST.

 WHATS UP NATHAN GRADY!
Comments