Mudhoney - Touch Me Im Sick Chords & Tabs

 

Touch Me Im Sick Chords & Tabs

Mudhoney Chords & Tabs

Version: 2 Type: Bass Tab 0 ratings
1 star 2 stars 3 stars 4 stars 5 stars
comments

Touch Me Im Sick Bass Tab

Artist:  Mudhoney
Album:  Superfuzzbigmuff
Song:  Touch Me, I'm Sick
Submitted by:  RIPKC6794@AOL.COM



Opening:  Play this when it's just guitar, you'll know 
when to play it.

E:---------4-4------:
A:------------------:
D:------------------:
G:------------------:

Verse.

E:---4--4-----------:
A:---------5-4-2----:
D:------------------:
G:------------------:
[ Tab from: http://www.guitartabs.cc/tabs/m/mudhoney/touch_me_im_sick_btab_ver_2.html ]
Chorus/"Touch Me, I'm Sick" part.

E:------------------:
A:---4-4-4--2-------:
D:------------------:
G:------------------:

Bridge/"Come On Baby" part.

E:-----4------------:
A:-------4-4-4------:
D:------------------:
G:------------------:

Pt. 2

E:------------------:
A:-----6-6--4-4-4---:
D:------------------:
G:------------------:

This tab looks odd, but you'll get used to it.

Comments