Mudhoney - Run Shithead Run Chords & Tabs

 

Run Shithead Run Chords & Tabs

Mudhoney Chords & Tabs

Version: 1 Type: Tab 0 ratings
1 star 2 stars 3 stars 4 stars 5 stars
comments

Run Shithead Run Tab

   
e|------------------------------------------
B|------------------------------------------
G|-8--8--7--7--------------8--8--7--7-10-10-
D|------------10-10--7--7-------------------
A|------------------------------------------
E|------------------------------------------

e|---------------------------------------------
B|---------------------------------------------
G|----8--8--7--7--------------8--8--7--7-10-10-
D|-7-------------10-10--7--7-------------------
A|---------------------------------------------
E|---------------------------------------------

e|------------------------------------------------
B|------------------------------------------------
G|-------8--8--7--7--------------8--8--7--7-10-10-
D|-7--7-------------10-10--7--7-------------------
A|------------------------------------------------
E|------------------------------------------------
x2
e|---------------------
B|---------------------
G|-------8--8--7-------
D|-7--7----------10-10-
A|---------------------
E|---------------------
x3
e|--------------------------------
B|--------------------------------
G|-------8--8--7------------------
D|-7--7----------10-10--7----12\7-
A|--------------------------------
E|--------------------------------
[ Tab from: http://www.guitartabs.cc/tabs/m/mudhoney/run_shithead_run_tab.html ]
e|------------------------------------------------
B|------------------------------------------------
G|-------8--8--7--7--------------8--8--7--7-10-10-
D|-7--7-------------10-10--7--7-------------------
A|------------------------------------------------
E|------------------------------------------------
x4
e|---------------------
B|---------------------
G|-------8--8--7-------
D|-7--7----------10-10-
A|---------------------
E|---------------------
x4
e|---------------------
B|---------------------
G|---5-7--------5-7----
D|-7-5-7--7---7-5-7--7-
A|-7-3-5--7---7-3-5--7-
E|-5------5---5------5-

e|---------------------------
B|---------------------------
G|-------8--8--7--7----------
D|-7--7-------------10-10--7-
A|---------------------------
E|---------------------------
x3
e|---------------------------------------------------------------------------------------------
B|---------------------------------------------------------------------------------------------
G|------8--8--7--7--------------------------7-/8~~7-----------------7--8-8-8--7----------------
D|7--7-------------10-10--7-10--7-10--7-10----------10--7-10--7-10--------------10--7-10--7-10-
A|---------------------------------------------------------------------------------------------
E|---------------------------------------------------------------------------------------------

e|--------------------------
B|-6-6-6-6-8-8-8-8-10101010-
G|-5-5-5-5-7-7-7-7--9-9-9-9-
D|--------------------------
A|--------------------------
E|--------------------------

e|---------------------
B|---------------------
G|-------8--8--7-------
D|-7--7----------10-10-
A|---------------------
E|---------------------
x4
e|------------------
B|------------------
G|---5-7-----5-7----
D|-7-5-7---7-5-7--7-
A|-7-3-5---7-3-5--7-
E|-5-------5------5-

e|-------
B|-------
G|---5---
D|-2-5-5-
A|-2-3-5-
E|-0---3-
x8

Questions or comments to meg@lycos.es
Comments