Mudhoney - Pump It Up Chords & Tabs

 

Pump It Up Chords & Tabs

Mudhoney Chords & Tabs

Version: 2 Type: Bass Tab 0 ratings
1 star 2 stars 3 stars 4 stars 5 stars
comments

Pump It Up Bass Tab

Mudhoney
Pump It Up
Send corrections to vow32@yahoo.com
[ Tab from: http://www.guitartabs.cc/tabs/m/mudhoney/pump_it_up_btab_ver_2.html ]
Intro:
G:----------------------------------
D:------2--2--0---------------------
A:----------------2-----------------
E:--0-----------------2---2--0----

Verse:
Riff 1
A:---1-0--2-
E:----------------

Riff 2
G:---------------
D:------0-2-0--
A:-2----2-------2
E:---------------

Chorus:
G:---------4---------4---
D:--2-2-2-2-2-2-2-2-2-2
Comments