Mudhoney - Let It Slide Chords & Tabs

 

Let It Slide Chords & Tabs

Mudhoney Chords & Tabs

Version: 1 Type: Tab 0 ratings
1 star 2 stars 3 stars 4 stars 5 stars
comments

Let It Slide Tab

   
(4/4 Time) Intro: Guitar 2 w/Slide Making Noise; Then:
  B                     G
-------------------------------------------------------------
-*-----------------------------------------------------------
-5-4-4-4-4---------------------------------------------------
---4-4-4-4-5-5-5-5-------------------------------------------
---2-2-2-2-5-5-5-5-------------------------------------------
-----------3-3-3-3-------------------------------------------
(*=Pick-up Note) (Guitar 1 and 2 [Without Slide]) (Repeat
3 Times) Verse:
 C       A       C       A
-------------------------------------------------------------
-------------------------------------------------------------
-5-5-5-5-2-2-2-2-5-5-5-5-2-2-2-2-----------------------------
-5-5-5-5-2-2-2-2-5-5-5-5-2-2-2-2-----------------------------
-3-3-3-3-0-0-0-0-3-3-3-3-0-0-0-0-----------------------------
-------------------------------------------------------------
(Guitar 1) (Repeat Once)
-------------------------------------------------------------
-----------------5---5--/14----------------------------------
-----------------5---5--/14----------------------------------
-----------------5---5--/14----------------------------------
-------------------------------------------------------------
-------------------------------------------------------------
(Guitar 2 w/Slide) (Repeat Once)  B       G       B       G
-------------------------------------------------------------
-------------------------------------------------------------
-4-4-4-4---------4-4-4-4-------------------------------------
-4-4-4-4-5-5-5-5-4-4-4-4-5-5-5-5-----------------------------
-2-2-2-2-5-5-5-5-2-2-2-2-5-5-5-5-----------------------------
---------3-3-3-3---------3-3-3-3-----------------------------
(Guitar 1) (Repeat Once)
-------------------------------------------------------------
-----------------4---4--/12----------------------------------
-----------------4---4--/12----------------------------------
-----------------4---4--/12----------------------------------
-------------------------------------------------------------
-------------------------------------------------------------
(Guitar 2) (Repeat Once) Chorus:
  F#                                         A
-------------------------------------------------------------
-------------------------------------------------------------
---------------------------------------------2-2-2-2-2-2-2-2-
-4-4-4-4--4-4-4-4-4--4-4-4-4-4-4-4-4-4-4-4-4-2-2-2-2-2-2-2-2-
-4-4-4-4--4-4-4-4-4--4-4-4-4-4-4-4-4-4-4-4-4-0-0-0-0-0-0-0-0-
-2-2-2-2--2-2-2-2-2--2-2-2-2-2-2-2-2-2-2-2-2-----------------
(Guitar 1; Guitar 2 Tacet)                  C
-------------------------------------------------------------
-------------------------------------------------------------
-2-2-2-2-2-2-2-2-5-5-5-5-5-5-5-5-5-5-5-5-5-5-5-5-------------
-2-2-2-2-2-2-2-2-5-5-5-5-5-5-5-5-5-5-5-5-5-5-5-5-------------
-0-0-0-0-0-0-0-0-3-3-3-3-3-3-3-3-3-3-3-3-3-3-3-3-------------
-------------------------------------------------------------
(Guitar 1) Outtro:
 B       G           
-------------------------------------------------------------
-------------------------------------------------------------
-4-4-4-4-----------------------------------------------------
-4-4-4-4-5-5-5-5---------------------------------------------
-2-2-2-2-5-5-5-5---------------------------------------------
---------3-3-3-3---------------------------------------------
(Guitar 1) (Repeat 19 Times Then Play Below)
-------------------------------------------------------------
-4------/12--------------------------------------------------
-4------/12--------------------------------------------------
-4------/12--------------------------------------------------
-------------------------------------------------------------
-------------------------------------------------------------
(Guitar 2) (Repeat 3 Times Then Create Random Noise with
Slide Until the End)  B
-------------------------------------------------------------
-------------------------------------------------------------
-4\----------------------------------------------------------
-4\----------------------------------------------------------
-2\----------------------------------------------------------
-------------------------------------------------------------
(Guitar 1)
[ Tab from: http://www.guitartabs.cc/tabs/m/mudhoney/let_it_slide_tab.html ]
Comments