Mudhoney - Fuzzbuster Chords & Tabs

 

Fuzzbuster Chords & Tabs

Mudhoney Chords & Tabs

Version: 1 Type: Bass Tab 0 ratings
1 star 2 stars 3 stars 4 stars 5 stars
comments

Fuzzbuster Bass Tab

Mudhoney
Fuzzbuster
Send corrections to vow32@yahoo.com
[ Tab from: http://www.guitartabs.cc/tabs/m/mudhoney/fuzzbuster_btab.html ]
Riff 1
G:-----5---2
D:--3-------
A:----------
E:----------

Riff 2
G:-----10---7
D:--8--------
A:-----------
E:-----------

Riff 3
D:--5-5-5-5-5

Riff 4
D:----11----11

Comments