Mudhoney - Acetone Chords & Tabs

 

Acetone Chords & Tabs

Mudhoney Chords & Tabs

Version: 1 Type: Tab 0 ratings
1 star 2 stars 3 stars 4 stars 5 stars
comments

Acetone Tab

   
Mudhoney
"Acetone"
PEICE OF CAKE

E-3-3-3-3-3-2-2-2-2-2-0-0-0-0-0-3
B-0-0-0-0-0-3-3-3-3-3-1-1-1-1-1-0 These are the chords played
G-0-0-0-0-0-2-2-2-2-2-0-0-0-0-0-0 G, D, C, G, but this is not the
D-0-0-0-0-0-0-0-0-0-0-2-2-2-2-2-0 correct strum pattern. Listen
A-2-2-2-2-2-----------3-3-3-3-3-2 to the song.
E-3-3-3-3-3---------------------3
[ Tab from: http://www.guitartabs.cc/tabs/m/mudhoney/acetone_tab.html ]
Solo:
E---------------------------10b-letring-10-10-10-10-
B-8-8-8-8-8/-12-12-12-12/-8-------------------------
G---------------------------------------------------
D---------------------------------------------------
A---------------------------------------------------
E---------------------------------------------------

E-----------------------
B-12-13-13-13-13-12-10-8
G-----------------------
D-----------------------
A-----------------------
E-----------------------
Comments