Muddy Waters - Hoochie Coochie Man Chords & Tabs

 

Muddy Waters Chords & Tabs

Version: 1 Type: Tab 0 ratings
1 star 2 stars 3 stars 4 stars 5 stars
comments

Hoochie Coochie Man Tab

   
----------------------------------------------------------------------------
		   Hoochie Coochie Man - Muddy Waters
----------------------------------------------------------------------------
Tabbed by: Joe a.k.a. The Young Page
Email: bustamoves@swbell.net

Tuning: Standard

e|------------------|
B|------------------|
G|------------------| MAIN RIFF; REPEAT THRU VERSE
D|----7----7--7-----|
A|--5---5-----------|
E|------------------|

CHORUS RIFFS
[ Tab from: http://www.guitartabs.cc/tabs/m/muddy_waters/hoochie_coochie_man_tab.html ]
    A RIFF
e|------------------|
B|------------------|
G|------------------| 
D|-2-2-4-4----------|
A|-0-0-0-0----------|
E|------------------|

   D RIFF
e|------------------|
B|------------------|
G|-2-2-4-4----------| 
D|-0-0-0-0----------|
A|------------------|
E|------------------|

   E RIFF
e|------------------|
B|------------------|
G|------------------| 
D|------------------|
A|-2-2-4-4----------|
E|-0-0-0-0----------|


CHORUS:

A x2
D x8
A x8
E x2
D x2
A x4

Back to Main Riff
Comments