Much Of It - Bliss Chords & Tabs

 

Bliss Chords & Tabs

Much Of It Chords & Tabs

Version: 1 Type: Tab 0 ratings
1 star 2 stars 3 stars 4 stars 5 stars
comments

Bliss Tab

3---3-3-3---------------------------|
|-3---3-3-3-5------3---3-3-3-6--------|
|-1---1-1-1-5-ring-3---3-3-3-6-ring---|
|-----------3------1---1-1-1-4--------|

|-------------------------------------------------------|
|-------------------------------------------------------|
|--------------------------8-8-8-8-8--------------------|
|--8-8-8-8-8---4-4-4-4-4---8-8-8-8-8---9-9-9---7-7-7/8--|
|--8-8-8-8-8---4-4-4-4-4---6-6-6-6-6---9-9-9---7-7-7/8--|
|--6-6-6-6-6---2-2-2-2-2---------------7-7-7---5-5-5/6--|

Then there's the chorus...

|-----------------------|
|-----------------------|
|-----------------------|
|-8----8-8\5----5-5-----|
|-8----8-8\5----5-5-----|
|-6----6-6\3----3-3-----|
  He's the one...

|--------------------------------|
|--------------------------------|
|-5--5-5-5/8-8-8-8-8-------------|
|-5--5-5-5/8-8-8-8-8-------------|
|-3--3-3-3/6-6-6-6-6-------------|
|--------------------------------|
  Don't know what it means...

Then go back to the intro riff.

Here's the solo.  It's alot different than the ones I've seen posted, bu
what do you expect for free from the Internet? :)

Use a lot of distortion if you haven't already
[ Tab from: http://www.guitartabs.cc/tabs/m/much_of_it/bliss_tab.html ]
   )    )      )    )
|--8----8-----10----6-----------------------------------|
|--------------------------------------)---------)-)----|
|----------------------7----9-10-9-10-10-9-9-7-9-9-9-7--|
|-------------------------------------------------------|
|-------------------------------------------------------|
|-------------------------------------------------------|
   )                                )
|-12--------------------------)--)--8----)--)-----------|
|----------------------------12-13-----7-7--9-8---------|
|-------12-14-12-14-15-14-15----------------------------|
|-------------------------------------------------------|
|-------------------------------------------------------|
|-------------------------------------------------------|

Comments, questions, praise, backrubs, complaints, send them
to Neil.James@tclbbs.com


From: Ted.Bebenek@bbs.oit.unc.edu (Ted Bebenek)
Date: Wed, 22 Jul 1992 19:13:57 GMT


In Bloom					This is the mane riff played
========					throughout the intro.  The
						chorus is a bit different, 
----------------------------------------	but I think it uses the same
----------------------------------------	chords.  There is no guitar
----------------------------------------	during the verses, only bass.
--55555-X-22222-X-77777-X-5555-4444-----
--33333-X-00000-X-55555-X-3333-2222-----
----------------------------------------

Comments