Mu330 - Funny Papers Chords & Tabs

 

Funny Papers Chords & Tabs

Mu330 Chords & Tabs

Version: 1 Type: Bass Tab 0 ratings
1 star 2 stars 3 stars 4 stars 5 stars
comments

Funny Papers Bass Tab

Song:  Funny Papers
Band:  MU330
Album:  Crab Rangoon
tabbed by:  ALBINO (bbfan@bellatlantic.net)
http://www.divineweb.com/tabs

			
			">" = strum


G:---------------------------------------------------------------
D:--7-6-4--------------------------------------------------------
A:--------0-4-5-7-0-5-4-----------0------------------------------
E:----------------------7-5-4-5-7--------------------------------


G:---------------------------------------------------------------
D:---------------------------------------------------------------
A:---------7-7--7-5-5--5-7-7-------------------------------------
E:--5-5--5-------------------------------------------------------

[ Tab from: http://www.guitartabs.cc/tabs/m/mu330/funny_papers_btab.html ]
G:---------------------------------------------------------------
D:---------------------------------------------------------------
A:---------------------------------------------------------------
E:--5---4---5---4------------------------------------------------


G:---------------------------------------------------------------
D:--4>--6-4-6-4------6-4-----------------------------------------
A:---------------7>------7-5-------------------------------------
E:---------------------------5>--4>--5>--4>----------------------


G:---------------------------------------------------------------
D:---------------------------------------------------------------
A:----------------------5>-7>------------------------------------
E:--7>--0>--5>--2>--7>-------------------------------------------


G:---------------------------------------------------------------
D:---------------------------------------------------------------
A:-------4>--5>--7>----------------------------------------------
E:---5>----------------------------------------------------------
Comments