Mtukudzi Oliver - Hear Me Lord Chords & Tabs

 

Hear Me Lord Chords & Tabs

Mtukudzi Oliver Chords & Tabs

Version: 1 Type: Tab 0 ratings
1 star 2 stars 3 stars 4 stars 5 stars
comments

Hear Me Lord Tab

Okay the song has the chords -0- -5- -4- -0- -2-
                             -0- -5- -5- -0- -5-
                             -1- -6- -6- -1- -5-
                             -2- -7- -6- -2- -5-
                             -2- -7- -4- -2- -2-
                             -0- -5- -x- -0- -x-
        for this many beats   4   2   2   4   4

and then the second guitar goes
[ Tab from: http://www.guitartabs.cc/tabs/m/mtukudzi_oliver/hear_me_lord_tab.html ]
-4/5-5-5-4-0------------------------0/2-2-2-4-0---------------------
-------------0-2-0-0-0-2-0-0-0-0----------------0-2-0-0-0-2-0-0-0-0-
--------------------------------------------------------------------
--------------------------------------------------------------------
--------------------------------------------------------------------
--------------------------------------------------------------------

and u can mute it sometimes. Then it goes like this (lead guitar)

-----------9-9-9-------------------------------------------------------12-9------9---------------------
-9-10-12---------12-10-9----12-9t10----12-10-9---12-9t10----12-10-9---------12-9---12-9----9-----------
-------------------------11---------11---------9---------11-----------------------------11---11----9---
------------------------------------------------------------------------------------------------11---11
-------------------------------------------------------------------------------------------------------
-------------------------------------------------------------------------------------------------------

and thats about it. if u dont like it too bad i got it by ear... 
Comments