Mstrkrft - Heartbreaker Chords & Tabs

 

Heartbreaker Chords & Tabs

Mstrkrft Chords & Tabs

Version: 2 Type: Tab 0 ratings
1 star 2 stars 3 stars 4 stars 5 stars
comments

Heartbreaker Tab

-------------------------------------------------------------------------------
                             HEARTBREAKER - MSTRKRFT
-------------------------------------------------------------------------------
Tabbed by:Vince Sims


Tuning: Standard

CAPO - 1st Fret

Strum or finger.
Improvise on the intro/verse, its a bit tricky.

Intro/Verse

e|--------------------------------------------------------------------------|
B|-3-3-3-3----3-3-3-----3----3-3-3-3-----3-3-3-3----------------------------|
G|-4-4-4-4----4-4-4-----4----4-4-4-4-----4-4-4-4----------------------------|
D|-4-4-4-4----4-4-4-----4----4-4-4-4-----4-4-4-4----------------------------|
A|-2-2-2-2----x-x-x--------0------------------------------------------------|
E|----------0h3-------4----------------0------------------------------------|

Chorus
[ Tab from: http://www.guitartabs.cc/tabs/m/mstrkrft/heartbreaker_tab_ver_2.html ]
e|-x-x-x-x----x-x-x-----x-x-x----------x-x-x-x----------------------------|
B|-3-3-3-3----3-3-3-----3-3-3----------3-3-3-3----------------------------|
G|-2-2-2-2----2-2-2-----4-4-4----------4-4-4-4----------------------------|
D|-4-4-4-4----4-4-4-----4-4-4----------4-4-4-4----------------------------|
A|-2-2-2-2----x-x-x-----x-x-x----------x-x-x-x----------------------------|
E|------------3-3-3-----4-4-4----------x-x-x-x----------------------------|

INTRO

VERSE

Remember when I caught your eye
You gave me rainbows and butterflies
We did enjoy our happiness?
When our love was over
I was such a mess

I smiled at you
And you smiled back
That's when I knew
There's no turning back
You said you loved me
And I did too
Now though it's over
I still love you

CHORUS

You're in my mind
You're in my heart
I wish I knew right from the start
All my friends said you break my heart
A heartbreaker right from the start

VERSE

I tried to fight it
I tried so hard
And every day
I pray to god
That you and me were meant to be
But you had another
You had a lover

And now is gone
I don't know why
I feel like crying
Just want to die
I can't look at you
And you know why
No, I tried so hard
To catch your eye

CHORUS

You're in my mind
You're in my heart
I wish I knew right from the start
All my friends said you break my heart
A heartbreaker right from the start

You're in my mind
You're in my heart
I wish I knew right from the start
All my friends said you break my heart
A heartbreaker right from the start
Comments