Mraz Jason - Tonight Not Again Chords & Tabs

 

Tonight Not Again Chords & Tabs

Mraz Jason Chords & Tabs

Version: 2 Type: Tab 1 rating
1 star 2 stars 3 stars 4 stars 5 stars
comments

Tonight Not Again Tab

Artist: Jason Mraz
Song: Tonight, Not Again

Standard Tuning
Capo 3
(notes relative to capo)

INTRO:
e-----------------------x-----------------------0--
B-----------------------x------------------------0-
G-----------------0-----x-----------0---0----------
D--------4--4-------4---x---------------5----5-----
A------5----5----5------x---------5-----5----------
E--0--------------------x--0-1---------------------
 
X 4

VERSE:

1(the night…)
2(Still I’m unable…)

e-----------------------x-----------------------0--
B-----------------------x------------------------0-
G-----------------0-----x-----------0---0----------
D--------4--4-------4---x---------------5----5-----
A------5----5----5------x---------5-----5----------
E--0--------------------x--0-1---------------------

CHORUS:
(Ooo, Ooo)
(Lovely…)

e-----------x-----x---------x----------------------
B------3-3--x--3--x----3-3--x--3-------------------
G------0-0--x--0--x----0-0--x--0-------------------
D---0--0-0--x--0--x----0-2--x--0-------------------
A------2-2--x--2--x----2-2--x--2-------------------
E--3---3—3--x--3--x--3-2-2--x--2-------------------

(And don’t if feel alright...)
(Lovely, sing it again...)

e--0-0--x--0--x--0----x--0-0-0--x------------------
B--0-0--x--0--x--0----x--0-0-0--x------------------
G--5-5--x--4--x--4-7--x--4-4-5--x------------------
D--5-5--x--5--x--5----x--5-5-5--x------------------
A--0-0--x--0--x--0----x--0-0-0--x------------------
E-------x-----x-------x---------x------------------

x 2

VERSE 2

CHORUS 2:

(Ooo, Ooo)
(Lovely…)
e-----------x-----x---------x----------------------
B------3-3--x--3--x----3-3--x--3-------------------
G------0-0--x--0--x----0-0--x--0-------------------
D---0--0-0--x--0--x----0-2--x--0-------------------
A------2-2--x--2--x----2-2--x--2-------------------
E--3---3—3--x--3--x--3-2-2--x--2-------------------

(And don’t if feel alright...)
e--0-0--x--0--x--0----x--0-0-0--x------------------
B--0-0--x--0--x--0----x--0-0-0--x------------------
G--5-5--x--4--x--4-7--x--4-4-5--x------------------
D--5-5--x--5--x--5----x--5-5-5--x------------------
A--0-0--x--0--x--0----x--0-0-0--x------------------
E-------x-----x-------x---------x------------------

x 2

Bridge:
(Say-ay-ay-ai-ay-ay..)
e-----------------------
B--3-3-3-3-3-3----------
G--0-0-0-0-0-0----------
D--0-0-0-0-0-0----------
A--2-2-2-2-2-2----------
E--3-3-3-3-3-3----------

(And if you should nervously breakdown…)
(It’s when you cry just a little…)
e--1-1--x--1--x---------x-----x--------------------
B--1-1--x--1--x---------x-----x--------------------
G--2-2--x--2--x----0-0--x--0--x--------------------
D--3-3--x--3--x----2-2--x--2--x--------------------
A--3-3--x--3--x----3-3--x--3--x--------------------
E--1-1--x--1--x--1-0-0--x--0--x--------------------
[ Tab from: http://www.guitartabs.cc/tabs/m/mraz_jason/tonight_not_again_tab_ver_2.html ]
(Would you take it?...)
(That you’ve made it…)
e-------x-----x---------x-----x--------------------
B--3-3--x--3--x----3-3--x--3--x--------------------
G--0-0--x--0--x----0-0--x--0--x--------------------
D--0-0--x--0--x----0-0--x--0--x--------------------
A--2-2--x--2--x----2-2--x--2--x--------------------
E--3-3--x--3--x--3-3-3--x--3--x--------------------

x 2

(And don’t if feel alright...)
e--0-0--x--0--x--0----x--0-0-0--x------------------
B--0-0--x--0--x--0----x--0-0-0--x------------------
G--5-5--x--4--x--4-7--x--4-4-5--x------------------
D--5-5--x--5--x--5----x--5-5-5--x------------------
A--0-0--x--0--x--0----x--0-0-0--x------------------
E-------x-----x-------x---------x------------------


(Love, Love Love…)
e-----------------------
B--3-3-3-3-3-3----------
G--0-0-0-0-0-0----------
D--0-0-0-0-0-0----------
A--2-2-2-2-2-2----------
E--3-3-3-3-3-3----------

Chorus:

(La La La La Lovely…)
e-----------x-----x---------x-----------------------
B------3-3--x--3--x----3-3--x--3--------------------
G------0-0--x--0--x----0-0--x--0--------------------
D---0--0-0--x--0--x----0-2--x--0--------------------
A------2-2--x--2--x----2-2--x--2--------------------
E--3---3—3--x--3--x--3-2-2--x--2--------------------

(La La La Love…)
e--0-0--x--0--x--0----x--0-0-0--x-------------------
B--0-0--x--0--x--0----x--0-0-0--x-------------------
G--5-5--x--4--x--4-7--x--4-4-5--x-------------------
D--5-5--x--5--x--5----x--5-5-5--x-------------------
A--0-0--x--0--x--0----x--0-0-0--x-------------------
E-------x-----x-------x---------x-------------------

X 2

(You say you say, sing it again…)
Trumpets and scat etc, depending on if its live
e-----------------------x-----------------------0--
B-----------------------x------------------------0-
G-----------------0-----x-----------0---0----------
D--------4--4-------4---x---------------5----5-----
A------5----5----5------x---------5-----5----------
E--0--------------------x--0-1---------------------

x 8

(It’s coming agaAAAAIIN…)
e-----------x-----x---------x----------------------
B------3-3--x--3--x----3-3--x--3-------------------
G------0-0--x--0--x----0-0--x--0-------------------
D---0--0-0--x--0--x----0-2--x--0-------------------
A------2-2--x--2--x----2-2--x--2-------------------
E--3---3—3--x--3--x--3-2-2--x--2-------------------

Lovely, Lovely, etc...)
e--0-0--x--0--x--0----x--0-0-0--x------------------
B--0-0--x--0--x--0----x--0-0-0--x------------------
G--5-5--x--4--x--4-7--x--4-4-5--x------------------
D--5-5--x--5--x--5----x--5-5-5--x------------------
A--0-0--x--0--x--0----x--0-0-0--x------------------
E-------x-----x-------x---------x------------------

x 2

Outro
(scats and such)
e-----------------------x-----------------------0--
B-----------------------x------------------------0-
G-----------------0-----x-----------0---0----------
D--------4--4-------4---x---------------5----5-----
A------5----5----5------x---------5-----5----------
E--0--------------------x--0-1---------------------

x 8




Comments