Mraz Jason - The Remedy Chords & Tabs

 

The Remedy Chords & Tabs

Mraz Jason Chords & Tabs

Version: 1 Type: Tab 1 rating
1 star 2 stars 3 stars 4 stars 5 stars
comments

The Remedy Tab

   
**********************************************************************
The Remedy by Jason Mraz
Tabbed by PRiDiDdy 
**********************************************************************
G:  355XXX
C:  X355XX
F:  133XXX
Bb:688XXX
D: X577XX
Eb:X688XX
**********************************************************************

Intro: play twice
Guitar1:
--8--------------8-------------8------------8-------8----10---------8-------8-----10---------8-------
------11------------11------------11----------11------------11---------11-------------11-------------
---10----10-----10----10----10-----10----10-----------10---10---10-------------10---10---------------
-----------------------------------------------------------------------------------------------------
-----------------------------------------------------------------------------------------------------
-----------------------------------------------------------------------------------------------------

Guitar2:
------------------------------------------------------------------------------------------------------
------------------------------------------------------------------------------------------------------
------------------------------------------------------------------------------------------------------
-0--------------1----------------0--------------------------0---------1-----------------0-------------
----------------------------------------------3----------------------------------------------------3--
------------------------------------------------------------------------------------------------------

[ Tab from: http://www.guitartabs.cc/tabs/m/mraz_jason/the_remedy_tab.html ]
             G                  C               F                      Bb
I saw fireworks from the freeway and behind closed eyes I cannot make them go away
                          G                            C
Cause you were born on the fourth of july, freedom ring 
             F                 Bb
now something on the surface it stings
            G                                  C                               F
that something on the surface it kind of makes me nervous who says that you deserve this
               Bb                           G                     C
and what kind of god would serve this? We will cure this dirty old disease
        F
if you've got the poison I've got the remedy

 
         G                   C           F     Bb
the remedy is the experience. It is a dangerous liaison
                G                      C               F                 Bb
I say the comedy is that its serious. Which is a strange enough new play on words
                G                                       C             F          Bb
I say the tragedy is how you're gonna spend the rest of your nights with the light on
                G                             C                   F
So shine the light on all of your friends because it all amounts to nothing in the end.

 
Bb>F                  G   D>Eb>F
I     won't worry my life away.
Bb>F                  G   D>Eb>F
I     won't worry my life away.
Comments