Mraz Jason - Sleep All Day Chords & Tabs

 

Sleep All Day Chords & Tabs

Mraz Jason Chords & Tabs

Version: 1 Type: Tab 0 ratings
1 star 2 stars 3 stars 4 stars 5 stars
comments

Sleep All Day Tab

I believe this is the first Jason Mraz Tab here. 
I hope to see many more in the future. 
He is going to blow up soon.

This is the Intro, verse, and chorus
[ Tab from: http://www.guitartabs.cc/tabs/m/mraz_jason/sleep_all_day_tab.html ]
-----0-------0------0-----0----
-----7-------0------8-----0----
-----6-------7------7-----6----
-----7-------7------5-----7----
-----5-------x------7-----7----
-----x-------7------0-----5----

At the “All is Grounded…” part, here is what you play.

----0----3----0----
----8----3----7----
----7----4----6----
----5----5----7----
----7----5----5----
----0----3----x----

p.s. Sorry if this is reverse for most of you, I am left handed.
Comments