Mraz Jason - On Luv And Sadness Chords & Tabs

 

On Luv And Sadness Chords & Tabs

Mraz Jason Chords & Tabs

Version: 1 Type: Chords 0 ratings
1 star 2 stars 3 stars 4 stars 5 stars
comments

On Luv And Sadness Chords

Hey this song is awesome and this is a really easy version of it that sounds pretty correct to me!!

Standard tuning, capo on 2 fret (all bar chords in relation to capo)

intro:
e-------------------
b-------------------
g-------------------
d------9--7--9--7---
a------7--5--7--5---
E---0--0--0--0--0---
[ Tab from: http://www.guitartabs.cc/tabs/m/mraz_jason/on_luv_and_sadness_crd.html ]
Verse:
e---3---5---2---3---
b---3---5---2---3---
g---4---5---4---5---
d---5---7---4---5---
a---5---7---2---3---
E---3---5-----------

Chorus:
e---3---5---5---
b---3---5---5---
g---4---7---5---
d---5---7---7---
a---5---5---7---
E---3-------5---



Thats about it lisen to the song to get the strumming pattern down
JASON MRAZ ROCKS!!!!!
Comments