Mr Bungle - Stubb Chords & Tabs

 

Stubb Chords & Tabs

Mr Bungle Chords & Tabs

Version: 1 Type: Bass Tab 0 ratings
1 star 2 stars 3 stars 4 stars 5 stars
comments

Stubb Bass Tab

   
Stubb (a dub) by Mr Bungle.

PART A
*******
				   [x1]						   [x1]
G |------------------------------------|-----------------------------------------------|
D |------------------------------------|-----4---------------4-------------------------|
A |-3--3--1---1-0-------5-4-3-2-----2--|--2-3-------3-------3-------3------------------|    
E |--3--3---3-----0-579---------3-3----|3------------4---------------4-4--4-4--4-4--4--|  



PART B
******
									      [x1]
G |---------------------------------------|---------------------------------------|
D |--------------------------5-6-7-6-5----|-------------------------------0-1-2-3-|
A |----------6-7-------5-7-8----------8-7-|----------6-7-----------0-1-2-3--------| 
E |-5-0-5-7-8---8-5-7-8-------------------|-5-0-5-7-8---8-7-0-1-2-3---------------|

			       [x2]
G |--------------------------------|
D |--------------------------------|
A |-2-2------2----0------2-----0---|
E |-----1-----1----1-------1-----1-|

PART C
*******
				     [x4]			      [x1]
G |---------------------------------------|-------------------------------|
D |---------------------------------------|-------------------------------|
A |-0-2-3-2-2-0-2-3-2-2-------------------|-0-2-3-2-2-0-2-3-2-2-----------|
E |---------------------4-5-7-4-4-4-5-7-4-|---------------------4-5-7-8---|


PART B [first 2 bars]


									   [x1]
G |---------------------------------------------|------------------------------|
D |---------------------------------------------|--3332------------------------|
A |---------------------------------------------|----------------2221----------|
E |---5-54---5-54--5-54--5------50505050505050--|------------------------------|


[ Tab from: http://www.guitartabs.cc/tabs/m/mr_bungle/stubb_btab.html ]
PART D
*******
				      [x3]					  [x3]	
G |---------------------------------------|-------------------------------------------|
D |-----------------------5-5-6-7--765----|-----------------------5-5-4-3-2-1-0-------|
A |-5-0-5-6-0-4-0-7-5-0--0--------0-----7-|---5-0-5-6-0-4-0-7-5-0---------------------|
E |---------------------------------------|---------------------------------------5-4-|




PART E
*******
									   [x1]
G |-------------------|--------------------------------------------------------|
D |----6---6---5---5--|----6---6---5---5---------------------------------------|
A |--6---6---5---5----|--6---6---5---5----------5-0-5-0-5-0-5-0-4-0-4-0-4-0-4-0|
E |-------------------|--------------------------------------------------------|

						[x1]
G |-------------------------------------------------|
D |-------------------------------------------------|
A |--5--4-5-4-5--4--3-4-3-4--3--2-3-2-3--2--1-2-1-2-|
E |-------------------------------------------------|
	
						[x1]
G |-------------------------------------------------|
D |-------------------------------------------------|
A |---------------------------444444----------------|
E |--6-0-6-0-6-0-6-0---333333--------333333-000000--|

PART B [1st bar]

G |-------------------------------------------------|
D |-------------------2---2-----3---3----4----------|
A |----------6-7----4---4-----5---5----6----5-4-3---|
E |-5-0-5-7-8----8----------------------------------|

PART B [3rd bar]

PART C [x3]
G |---------------------|-2222-21--|
D |---------------------|----------|
A |-0-2-3-2-2-0-2-3-2-2-|----------|
E |---------------------|----------|


PART B [first 2 bars]

G |---------------------------------------------|------------------------------|
D |---------------------------------------------|--3332------------------------|
A |---------------------------------------------|----------------2221----------|
E |---5-54---5-54--5-54--5------50505050505050--|------------------------------|

PART D [as before]

PART E [x1]

PART A [both bars once]

(fade out)

TABBED BY Barry Worthington=

Comments