Mr Bungle - Egg Chords & Tabs

 

Egg Chords & Tabs

Mr Bungle Chords & Tabs

Version: 2 Type: Bass Tab 0 ratings
1 star 2 stars 3 stars 4 stars 5 stars
comments

Egg Bass Tab

Bass Tab
Egg - Mr Bungle

Intro (slappin/popping)
|--------|
|--------|
|-----4--|
|-0------|

Polka Bit (egg.....egg etc.)
|-------------|-------------|-------------|------|----)
|----4--------|----4--------|----4--------|----4-|    )
|-5-------3-4-|-5-------3-4-|-5-------3-4-|-5----|    )
|-------5-----|-------5-----|-------5-----|------|    )
                                                      )-x3
|-------------|-------------|-------------|------|    )
|----2--------|----2--------|----2--------|----2-|    )
|-3-------1-2-|-3-------1-2-|-3-------1-2-|-3----|    )
|-------3-----|-------3-----|-------3-----|------|----)

Polka Bit 2(blah blah blah)
|---------------------------------|----------|x3
|---4---4---4---4---4---4---4---4-|----------|
|-6-------6-------6-------6-------|----------|
|-----6-------6-------6-------6---|--2-2--1--|

Polka Bit 3(boiling hard in euphanism...)
|---------------------------------|-----------------|x3
|---4---4---4---4---4---4---4---4-|---2---2---1---1-|
|-6-------6-------6-------6-------|-4-------3-------|
|-----6-------6-------6-------6---|-----4-------3---|
[ Tab from: http://www.guitartabs.cc/tabs/m/mr_bungle/egg_btab_ver_2.html ]
Heavy bit
|--------------|x a shitload
|------------1-|
|--------------|
|-0---3-2-0----|

Heavy bit 2
|-----|x4  |------------------|x4
|-----|    |------------------|
|-----|    |------6h7-6h7-6h7-|
|-0-1-|    |-0-1--------------|

|----------|-----------------|x2
|----------|-----------------|
|-3-2-1-2--|-3-2-1-2-3-4-3-2-|
|----------|-----------------|

|-----------------|-----------------|x2
|-5-4-3-4-5-4-3-4-|-5-4-3-4-5-6-5-4-|
|-3-2-1-2-3-2-1-2-|-3-2-1-2-3-4-3-2-|
|-----------------|-----------------|

|------------------|
|------------------|
|-3----------------|
|--------4-4-5-4-3-|

Then you go back and play most of these riffs
again a few times, and then..
|----------------------------------------|
|----------------------------------------|
|-5--6--5--3--2---------2------2---------|
|----------------3---2------1------1---0-|

There's no place like home..
|-----------|-----------|----------|---------------|
|-----------|-----------|----------|---------------|
|--------2--|--------2--|--------2-|--2--3--2------|
|-0--0------|--0--0-----|--0--0----|-----------7/--|

After that it just gets really silly..

Tabbed by BENDA
wacka_smacka@hotmail.com

Comments