Mr Big - To Be With You Chords & Tabs

 

To Be With You Chords & Tabs

Mr Big Chords & Tabs

Version: 5 Type: Tab 0 ratings
1 star 2 stars 3 stars 4 stars 5 stars
comments

To Be With You Tab

   
MR.BIG - To Be With You
Tabbed By: silverash
EMail: silverash_poster@mail.china.com

[ Tab from: http://www.guitartabs.cc/tabs/m/mr_big/to_be_with_you_tab_ver_5.html ]
intro:E--12/4--
verse:#Cm E A E(x2) A E(x2) D B
chorus1:E E/#F A E B #Cm
          E E/#F A #Cm B E (x2)
bridge:A #Cm G
solo:
e-------------------------------4-2-4-0-----0------------------------------------
B-------------------------------5--------0--0------------------------------------
G-1-2/4-5-4-4------------------1-2/4-5-4---------------------------------------
D-2-4/6---7-4-4/6-6------------2-4/6---7---------------------------------------
A------------------------------------------------------------------------------
E----------------------------------------------5-------------------------------

e------------------------------------------------------4-4-2-4-0---0--12---
B-----------7-9---------------12-----10--9-10-12-------5---------0----12---
G-1-2/4-5-4-8-9------------9------9--------------9------------------------11/13-
D-2-4/6---7-9-11----9--11--------------------------11---------------------------
A----------------/9------------------------------------------------------------
E------------------------------------------------------------------------------
chorus2 KEY=G:G C G C Em
               G C Em D G 
chords uesed
E/#F   G    
-0-   -3-
-0-   -3-
-1-   -0-
-3-   -0-
-3-   -2-
-3-   -3-
Comments