Mr Big - To Be With You Chords & Tabs

 

To Be With You Chords & Tabs

Mr Big Chords & Tabs

Version: 3 Type: Tab 0 ratings
1 star 2 stars 3 stars 4 stars 5 stars
comments

To Be With You Tab

Song: To be with you (Guitar Solo)
By: Mr. Big

Tab by: Emmanuel
E-mail: fatalfury@edsamail.com.ph


||----------------------------------------------------------------------------|
||-------------------------------5-------2----------0-------------------------|
||---------1-------2s4------------------2----------2--------------------------|
||---------2-------4s6------------------2----------2--------------------------|
||----------------------------------------------------------------------------|
||----------------------------------------------------------------------------|


||----------------------------------------------------------------------------|
||----------------------------------------------------------------------------|
||---------4------------4-----------4-----------------------------------------|
||---------4---------4h0--------4h0-------------------------------------------|
||----------------------------------------------------------------------------|
||----------------------------------------------------------------------------|


||---------------------------------------------------4------------------|
||-------------------------------5-------------------5------------------|
||---------1-------2s4------------------2-------------------------------|
||---------2-------4s6------------------2-------------------------------|
||----------------------------------------2-----------------------------|
||----------------------------------------------------------------------|
	 	h	p	p

||---------2-------4--------2------0-------------0----------------------|
||-------------------------------------------0--------------------------|
||----------------------------------------------------------------------|
||----------------------------------------------------------------------|
||----------------------------------------------------------------------|
||-----------------------------------------------------------0----------|

[ Tab from: http://www.guitartabs.cc/tabs/m/mr_big/to_be_with_you_tab_ver_3.html ]
||-----------------------------------------------------------------------|
||-------------------------------5-------2----------0--------------------|
||---------1-------2s4------------------2----------2---------------------|
||---------2-------4s6------------------2----------2---------------------|
||-----------------------------------------------------------------------|
||-----------------------------------------------------------------------|



||-------2-----------4------4--------------------------------------------------|
||-------4-----------5------5------------------------------------12-------10---|
||-------4-----------6------6------------------------------9----------9--------|
||-----------------------------------------------9----11-----------------------|
||---------------------------------------s11-----------------------------------|
||-----------------------------------------------------------------------------|


||--------------------------------------------------------------4~~~~~--------------------|
||------9~~~~~~--10-----12s-------------------------------5~~~~~--------------------------|
||------------------------------------8s9-------------------------------------------------|
||---------------------------------------------11----(11)s--------------------------------|
||----------------------------------------------------------------------------------------|
||----------------------------------------------------------------------------------------|
	h	p	p

||------2-----4------2------0---------------0-------12h-------------------------|
||------------------------------------0---------------12h-----------------------|
||-------------------------------------------------------------11s13------------|
||------------------------------------------------------------------------------|
||------------------------------------------------------------------------------|
||------------------------------------------------------------------------------|



Any suggestions 
Mail me: 
Fatalfury@edsamail.com.ph



good luck!!!!!!!!!!!!!!!!!!!! and Enjoy
Comments