Mr Big - To Be With You Chords & Tabs

 

To Be With You Chords & Tabs

Mr Big Chords & Tabs

Version: 1 Type: Tab 3 ratings
1 star 2 stars 3 stars 4 stars 5 stars
comments

To Be With You Tab

   
Mr. Big
To be with you

Tabbed by: jcf_182@yahoo.com

Chords:C#m-Em-A


E----------------------------------
B----------------------------------
G---1--2--4--5--6--4--4--4---------
D---2--4--6-----7--7--4--6---------
A----------------------------------
E----------------------------------


E------------------4—2h4p2p0-------
B------------------5---------------
G---1--2--4--5--6------------------
D---2--4--6-----7------------------
A----------------------------------
E----------------------------------

[ Tab from: http://www.guitartabs.cc/tabs/m/mr_big/to_be_with_you_tab.html ]
E----------------------------9-----------------------------------------
B---------------------7--7---9-----------------------12—10—9—10-12-----
G---1--2--4--5--6--4--8—-8---9-------------------9----------------9----
D---2--4--6-----7--7--9--9---11----------9---11---------------------11-
A-------------------------------9---11---------------------------------
E----------------------------------------------------------------------


E---4-2h4p2p0---------------
B---5-----------------------
G---------------------------
D---------------------------
A---------------------------
E---------------------------

I didn’t get the whole chords but the main is here!!!
Have fun guys!

Im not sure of it but it sounds great when you play it.
There you go enjoy!!!
Comments