Mr Big - Take Cover Chords & Tabs

 

Mr Big Chords & Tabs

Version: 1 Type: Tab 0 ratings
1 star 2 stars 3 stars 4 stars 5 stars
comments

Take Cover Tab

   
-------------------------------------------------------------------------------
			    TAKE COVER - Mr. Big
-------------------------------------------------------------------------------
Tabbed by: Mike Fowler
Email: icemike_3@hotmail.com

Tuning: Standard

Intro:

e|----0---0--0---0--0-0--0-0----0---0--0---0--0--------------------------------|
B|---12--14--7--12--5-4--2-0---12--14--9--12--7--------------------------------|
G|-----------------------------------------------------------------------------|
D|-----------------------------------------------------------------------------|
A|-----------------------------------------------------------------------------|
E|-----------------------------------------------------------------------------|

Verse:

e|-----------0-2-0---------------0-2-0---------------|
B|----5-2-0--------2-0----5-2-0--------2-0-----------|        repeat
G|---------------------------------------------------|
D|---------------------------------------------------|
A|---------------------------------------------------|
E|---------------------------------------------------|

Chorus:

e|----0---0--0---0--0-0--0-0----0---0--0---0-----------------------------------|
B|---12--14--7--12--5-4--2-0---12--14--9--12-----------------------------------|
G|----------------------------------------------------------------9-11---------|
D|-----------------------------------------------------------9-11--------------|
A|------------------------------------------------------9-11-------------------|
E|-----------------------------------------------9--12-------------------------|
[ Tab from: http://www.guitartabs.cc/tabs/m/mr_big/take_cover_tab.html ]
e|-----------------------------------------------------------------------------|
B|--9-12--/15~~~---------------------------------------------------------------|
G|-----------------------------------------------------------------------------|
D|-----------------------------------------------------------------------------|
A|-----------------------------------------------------------------------------|
E|-----------------------------------------------------------------------------|

Solo:

e|----12-12-12~~11~~-----7-7-7~~-------7-7-7/9~~~--9-9-9p7-7-7-7-----------|
B|--------------------------------5~~--------------------------------------|
G|-------------------------------------------------------------------------|    x2
D|-------------------------------------------------------------------------|
A|-------------------------------------------------------------------------|
E|-------------------------------------------------------------------------|

e|---------------------------------------------------------------------------|
B|---------------------------------------------------------------------------|
G|--6--6--6--6\--------------------------------------------------------------|
D|--6--6--6--6\--------------------------------------------------------------|
A|--4--4--4--6\--------------------------------------------------------------|
E|---------------------------------------------------------------------------|

A pretty simple but great song, especially Eric Martins vocals.  Listen for the timings 
you'll do fine.  Mr. Big ROCKS!  \m/

| /  slide up
| \  slide down
| h  hammer-on
| p  pull-off
| ~  vibrato
| +  harmonic
| x  Mute note
===============================================================================
Comments