Moxon Michael - Autumn Breeze Chords & Tabs

 

Autumn Breeze Chords & Tabs

Moxon Michael Chords & Tabs

Version: 1 Type: Tab 1 rating
1 star 2 stars 3 stars 4 stars 5 stars
comments

Autumn Breeze Tab

Autumn Breeze


E|-3-3-----3-3-----0-------0-------0-------1-----------0-------0-----
B|-----1-------1-----0---------1-----0-1-------0-----------1-----0-1-
G|-------0-------0-------2---2---2-------2---2---2---2---2---2------- 
D|---------------------2---------------------------3-----------------    
A|---3-------2-------------------------------------------------------
E|-------------------------------------------------------------------

E|---1-------3-----3-----3-----3------------------------------------
B|-------0-----------0-----0-----0---0------------------------------
G|-2---2---2-----------0-----0-----0---------Repeat 2x--------------- 
D|---------------0--------------------------------------------------    
A|-----------------------------------------2-------------------------
E|-------------3-----------------------3-0---------------------------

E|-----1------1-3-1-0-----3-----3-----0-----0-----0-----0-----0------
B|-------3------------------0-----------1-----------1-------------1--
G|---2-----2------------------0-----------0-----------0-----2---2---2 
D|-0--------------------0-----------2-----------0--------*2---------- 
A|--------------------------------3-----------2----------------------
E|--------------------3----------------------------------------------

E|-0-------1-------1-----1-3-1-0-----3-----3-----0-----0-----0-------
B|---0-1-------------3-----------------0-----------1-----------1-----
G|-------2---2---2-----2-----------------0-----------0-----------0--- 
D|-------------0-------------------0-----------2-----------0---------    
A|-------------------------------------------3-----------2-----------
E|-------------------------------3-----------------------------------
[ Tab from: http://www.guitartabs.cc/tabs/m/moxon_michael/autumn_breeze_tab.html ]
E|-----3-------3-0---------------------------------------------------
B|-------0---0-0-0---------------------------------------------------
G|---------0---0-1--------------------------------------------------- 
D|---0---------0-2------2--------------------------------------------    
A|-------------2-3----0----------------------------------------------
E|-3-----------3-0--3------------------------------------------------

E|-3-3-----3-3-----0-------0-------0-------1-----------0-------0-----
B|-----1-------1-----0---------1-----0-1-------0-----------1-----0-1-
G|-------0-------0-------2---2---2-------2---2---2---2---2---2------- 
D|---------------------2---------------------------3-----------------    
A|---3-------2-------------------------------------------------------
E|-------------------------------------------------------------------

E|---1-------3-----3-----3-----3------------------------------------
B|-------0-----------0-----0-----0---0------------------------------
G|-2---2---2-----------0-----0-----0---------Repeat 2x--------------- 
D|---------------0--------------------------------------------------    
A|-----------------------------------------2-------------------------
E|-------------3-----------------------3-0---------------------------

E|-----1------1-3-1-0-----3-----3-----0-----0-----0-----0-----0------
B|-------3------------------0-----------1-----------1-------------1--
G|---2-----2------------------0-----------0-----------0-----2---2---2 
D|-0--------------------0-----------2-----------0--------*2---------- 
A|--------------------------------3-----------2----------------------
E|--------------------3----------------------------------------------

E|-0-------1-------1-----1-3-1-0-----3-----3-----0-----0-----0-------
B|---0-1-------------3-----------------0-----------1-----------1-----
G|-------2---2---2-----2-----------------0-----------0-----------0--- 
D|-------------0-------------------0-----------2-----------0---------    
A|-------------------------------------------3-----------2-----------
E|-------------------------------3-----------------------------------

E|-----3-------3-0---------------------------------------------------
B|-------0---0-0-0---------------------------------------------------
G|---------0---0-1--------------------------------------------------- 
D|---0---------0-2---------------------------------------------------    
A|-------------2-3---------------------------------------------------
E|-3-----------3-0---------------------------------------------------

Comments