Moxey Jarrod - Distance Between Us Chords & Tabs

 

Distance Between Us Chords & Tabs

Moxey Jarrod Chords & Tabs

Version: 1 Type: Tab 0 ratings
1 star 2 stars 3 stars 4 stars 5 stars
comments

Distance Between Us Tab

   
Song Title: Distance between Us
Written By: Jarrod Moxey
Date: 6Jun01

Guitar 1 - Lead - Electric
Guitar 2 - Rythm - Acoustic


Chords used
   Em  D/B  Gadd9 Cadd9 Am   F  Em7  C
e|-0----2-----3-----3----0---1---3---0---------------------------------------
B|-0----3-----3-----3----1---1---3---1---------------------------------------
G|-0----2-----0-----0----2---2---0---0---------------------------------------
D|-2----0-----0-----2----2---3---2---2---------------------------------------
A|-2----0-----2-----3----0---0---2---3---------------------------------------
E|-0----3-----3-----x----x---x---x---x---------------------------------------

Intro
gtr 1
e|-3----3-----3----3-3--3-----3-----3--3--3-----3------2----3-----2-----0----
B|-3------3----3-----3----3-----3------3----3-----3----3------3-----3--------
G|-0--------0----0---0------0-----0----0------0-----0--2--------2-----2------
D|-2-----------------2-----------------0---------------0---------------------
A|-2-----------------3-----------------2-------------------------------------
E|-------------------------------------3-------------------------------------

e|-3----3-----3----3-3--3-----3-----3--3--3-----3-----3-----3----------------
B|-3------3----3-----3----3-----3------3----3-----3-----3-----3--------------
G|-0--------0----0---0------0-----0----0------0-----0-----0-----0------------
D|-2-----------------2-----------------0-------------------------------------
A|-2-----------------3-----------------2-------------------------------------
E|-------------------------------------3-------------------------------------

e|----------3-----3-------------3-----3----------3-----3-----3-----3-------
B|------------3-----3-------------3-----3----------3-----3-----3-----3-----
G|--------0-----0-------------0-----0----------0-----0-----0-----0-----0--- 
D|-------------------------------------------------------------------------
A|-------------------------------------------------------------------------
E|-3-2-0-----------------0-2--------------2-3------------------------    x2

Gtr 2 joins 
Gtr 2  Em                D/B              Gadd9
Gtr 1
e|----------3-----3-------------3-----3----------3-----3-----3-----3-------
B|------------3-----3-------------3-----3----------3-----3-----3-----3-----
G|--------0-----0-------------0-----0----------0-----0-----0-----0-----0--- 
D|-------------------------------------------------------------------------
A|-------------------------------------------------------------------------
E|-3-2-0-----------------0-2--------------2-3------------------------    x2

Vocals Verse 1
Em                       D/B              Gadd9

   I don't know why   I feel this way     When I think about you
The crazy feelings that I get inside      when you do the things you do
times have changed  and you have grown    into the woman i see
but you and I     are so far apart        I wonder if it's just me
e|----------3-----3-------------3-----3----------3-----3-----3-----3-------
B|------------3-----3-------------3-----3----------3-----3-----3-----3-----
G|--------0-----0-------------0-----0----------0-----0-----0-----0-----0--- 
D|-------------------------------------------------------------------------
A|-------------------------------------------------------------------------
E|-3-2-0-----------------0-2--------------2-3------------------------    x4

   Em7              Cadd9            Gadd9
e|-3----3-----3----3-3--3-----3-----3--3--3-----3------2----3-----2-----0----
B|-3------3----3-----3----3-----3------3----3-----3----3------3-----3--------
G|-0--------0----0---0------0-----0----0------0-----0--2--------2-----2------
D|-2-----------------2-----------------0---------------0---------------------
A|-2-----------------3-----------------2-------------------------------------
E|-------------------------------------3-------------------------------------

   Em              Cadd9            Gadd9
e|-0----0-----0----0-2--2-----2-----2--3--3-----3-----3-----3-----3----------
B|-0------0----0-----3----3-----3------3----3-----3-----3-----3--------------
G|-0--------0----0---2------2-----2----0------0-----0-----0-----0------------
D|-2-----------------0-----------------0-------------------------------------
A|-2-----------------------------------2-------------------------------------
E|-------------------------------------3-------------------------------------

Verse 2
   Em                    D/B              Gadd9
e|----------3-----3-------------3-----3----------3-----3-----3-----3-------
B|------------3-----3-------------3-----3----------3-----3-----3-----3-----
G|--------0-----0-------------0-----0----------0-----0-----0-----0-----0--- 
D|-------------------------------------------------------------------------
A|-------------------------------------------------------------------------
E|-3-2-0-----------------0-2--------------2-3------------------------    x2

Vocals Verse 2
Em                       D/B              Gadd9
[ Tab from: http://www.guitartabs.cc/tabs/m/moxey_jarrod/distance_between_us_tab.html ]
 I'm not like         the guys you want   I don't even turn your head
But at night          I pray to god       and wish you'd love me instead
You show no intrest     in me at all      i'm just a stone in your shoe
and for you to give me   just one chance  would be a dream come true
e|----------3-----3-------------3-----3----------3-----3-----3-----3-------
B|------------3-----3-------------3-----3----------3-----3-----3-----3-----
G|--------0-----0-------------0-----0----------0-----0-----0-----0-----0--- 
D|-------------------------------------------------------------------------
A|-------------------------------------------------------------------------
E|-3-2-0-----------------0-2--------------2-3-----------------------     x4 

Vocals Chorus
Am                   F               C                Gadd9
The distance    between us          is greater     than god
the things I want to say to you I don't even know where to start
but if you knew that I loved you  I feel that you would just run
and things would   already be over  before they'd even begun
e|-0-------0---------1-------1-------0--------0--------3--3-----3----------
B|-1---1-------------1---1-----------1----1------------3----3--------------
G|---2---2-------------2---2------------0---0-----------------0------------
D|-------------------3-----------------------------------------------------
A|-0---------------------------------3-------------------------------------
E|-----------------------------------------------------3-------------------

   Em7              Cadd9            Gadd9
e|------3-----3----------3-----3----------3-----3-----3-----3--------------
B|--------3----3-----------3-----3----------3-----3-----3-----3------------
G|----------0----0-----------0-----0----------0-----0-----0-----0----------
D|---2----------------2-----------------0----------------------------------
A|-2----------------3------------------------------------------------------
E|------------------------------------3------------------------------------

   Em                    D/B              Gadd9
e|----------3-----3-------------3-----3----------3-----3-----3-----3-------
B|------------3-----3-------------3-----3----------3-----3-----3-----3-----
G|--------0-----0-------------0-----0----------0-----0-----0-----0-----0--- 
D|-------------------------------------------------------------------------
A|-------------------------------------------------------------------------
E|-3-2-0-----------------0-2--------------2-3-----------------------     x2


Vocals Verse 3
Em                       D/B              Gadd9

Just let me hold you  close to me         let me hear your heart beat
take my hand and       hold it tight      I'll sweep you off your feet
I'll hold you gently   I'll kiss you soft for you i could never hurt
I promise to          love you always and never treat you like dirt
e|----------3-----3-------------3-----3----------3-----3-----3-----3-------
B|------------3-----3-------------3-----3----------3-----3-----3-----3-----
G|--------0-----0-------------0-----0----------0-----0-----0-----0-----0--- 
D|-------------------------------------------------------------------------
A|-------------------------------------------------------------------------
E|-3-2-0-----------------0-2--------------2-3-----------------------     x4 


Vocals Verse 4
Em                       D/B              Gadd9

What must I do      to prove to you       that i'm yours to keep
through the times     good and bad        when it's all in a heap
but the distance     we are apart         is making things really hard
can we give it        just one chance     can you give it a start
e|----------3-----3-------------3-----3----------3-----3-----3-----3-------
B|------------3-----3-------------3-----3----------3-----3-----3-----3-----
G|--------0-----0-------------0-----0----------0-----0-----0-----0-----0--- 
D|-------------------------------------------------------------------------
A|-------------------------------------------------------------------------
E|-3-2-0-----------------0-2--------------2-3-----------------------     x4 

Vocals Bridge
Dm                Bb                F                             C

I'm asking you to look in your heart and find a spot in there for me
I'm overwhelmed by your absolute beauty with you I want to be
I leave you with these closing words put your hand in mine
Give us just one little chance and it will all be fine
e|-1-------1-----1-1-----1-------1-------1---------0-----0-----------------
B|-3---3-----3---3---3-----3-----1---1-----1-------1---1---1---------------
G|---2---2-------3-----3-----3-----2---2-----2---------------0-------------
D|-0-----------------------------3-------------------2---------2-----------
A|------------------------------------------------3------------------------
E|------------------------------------------------------------------     x4


Ending Chorus
Am                   F               C                Gadd9
We can kill      the distance        that keeps us    apart
We can make      everything alright  if you would give it a start
I know I'm not   the perfect guy     but for you    I can be
(Lets kill  the distance between us  lets make it you and me)x2
e|-0-------0---------1-------1-------0--------0--------3--3-----3----------
B|-1---1-------------1---1-----------1----1------------3----3--------------
G|---2---2-------------2---2------------0---0-----------------0------------
D|-------------------3-----------------------------------------------------
A|-0---------------------------------3-------------------------------------
E|-----------------------------------------------------3-------------------

   C (let ring)
e|-0~~~~~~~~~
B|-1~~~~~~~~~
G|-----------
D|-----------
A|-3~~~~~~~~~
E|-----------
Comments