Moxey Jarrod - Decisions Chords & Tabs

 

Decisions Chords & Tabs

Moxey Jarrod Chords & Tabs

Version: 1 Type: Tab 0 ratings
1 star 2 stars 3 stars 4 stars 5 stars
comments

Decisions Tab

   
Title: Decisions
Artist: Jarrod Moxey	
Date: 24DEC01 


   A*  D   G Cadd9 Am  G   C   Dm  F 
e|-0---2---3---3---0---3---0---1---1--
B|-5---3---3---3---1---0---1---3---1--
G|-6---2---0---0---2---0---0---2---2--
D|-7---0---0---2---2---0---2---0---3--
A|-x---x---2---3---0---2---3---x---x--
E|-x---x---3---x---x---3---0---x---x--

Intro and Verse, Chords played with single strum for intro
    A*              D         A*              D             
e|--12-11h12p11-9-7-----------12-11h12p11-9-7-------------------------------
B|------------------7-3-5---------------------7-5-5h7p5---------------------
G|------------------------------------------------------7-------------------
D|--------------------------------------------------------------------------
A|--------------------------------------------------------------------------
E|--------------------------------------------------------------------------
    A*              D       G6      C6    D
e|--12-11h12p11-9-7---------------------3-2h3p2-----------------------------
B|------------------7-5---5-3-------5-----------3---------------------------
G|----------------------7---------------------------------------------------
D|--------------------------------------------------------------------------
A|--------------------------------------------------------------------------
E|--------------------------------------------------------------------------
Chorus
   Am          C       G x3 Dm  F  C  G
e|--------------------------1---1--0--3-------------------------------------
B|--1-----------------------3---1--1--0-------------------------------------
G|----0h2p0-----------------2---2--0--0-------------------------------------
D|----------2---------------0---3--2--0-------------------------------------
A|-------------3---2--------x---x--3--2-------------------------------------
E|---------------------3----x---x--x--3-------------------------------------

   A*                       D
   You walked into my life, I noticed you
   A*                                     D
   You were walking with some friends of yours
   A*                          D
   I was kinda hoping that you had noticed me
        G          Cadd9         D
   And hadn't just walked on by
[ Tab from: http://www.guitartabs.cc/tabs/m/moxey_jarrod/decisions_tab.html ]
   A*                               D
   I was told by a friend of yours that you liked me
   A*                               D
   I couldn't believe that it was true
   A*                         D
   I was put on the spot, and had to ask myself
         G       Cadd9           D     
   would this be the girl for me

   Chorus
   Am         C             G
   But here I am, 9 months down the track
   Am         C         G
   singing this song to you
   Am           C          G
   looking deep into your eyes, with just one question
   Dm     F         C          G     
   do you love me, like I love you 

   A*                                       D
   I thought and thought and thought, but I couldn't decide
   A*                                    D
   So I turned to my friends for some help
   A*                                   D
   I was influenced into a decision I didn't want to make
            G       Cadd9           D
   But it seemed all right at the time

   A*                                 D
   I let my friends tell me what to do, and run my life
   A*                                 D
   and I listened to them and not my heart
   A*                           D
   I still regret that decision to this day 
        G           Cadd9        D
   And wish I could turn back, the hands of time

   Chorus

   A*                                D
   What I did was wrong and I hurt you
   A*                        D
   But you know it was unintentional
   A*                                       D
   Believe me when I say I'll never do it again
            G              Cadd9              D
   For you know that's the truth and I love you

   Chorus 
   
   Am        C              G
   9 months ago I made the wrong decision and I
   Am          C                 G
   Couldn't believe it would be so
   Am           C            G
   that you'd be the girl to take me breath away   
   Dm             F     C               G
   you're in my heart, and I'll never let go
   Dm              F    C             G  
   Darling be with me please don't say no   

   (Fade out)

   A* D
Comments