Moving Units - Between Us And Them Chords & Tabs

 

Between Us And Them Chords & Tabs

Moving Units Chords & Tabs

Version: 1 Type: Bass Tab 0 ratings
1 star 2 stars 3 stars 4 stars 5 stars
comments

Between Us And Them Bass Tab

Tabbed By: Cameron Caceres            movingunits.net cd dangerous dreams
                                      is the name of their album.
Email: megaherz5564@yahoo.com

verse: x8
G------------------10-10-10-10-7---------------------------------10-10-10-10--|
D----------12-10-8----------------10-8-8-----12-10-8-10-10-10-10--------------|
A--10-10---------------------------------6-6----------------------------------|
E-----------------------------------------------------------------------------|
Do this through the intro and the verse starts like 7 secs into the song
[ Tab from: http://www.guitartabs.cc/tabs/m/moving_units/between_us_and_them_btab.html ]
chorus:x4
G--8-8-8-8-8-10-8-------------------------------------------------------------|
D-----------------10-10-10-10-10-8-8-10----------------------8-8-8-8-8--------|
A-----------------------------------------10-10-10-10-10-8-10-----------------|
E-----------------------------------------------------------------------------|

chorus continued:
G-----------8-8-8-8-8-10-8----------------------------------------------------|
D--10-8-10-----------------10-10-10-10-10-8-8-10------------------------------|
A-----------------------------------------------------------------------------|
E-----------------------------------------------------------------------------|
Then go back to the verse.

Outro:
G-------12-12-------12-12------10-12-15-17-18-17-15-|
D---------------------------------------------------|
A---------------------------------------------------|
E-10-10------10-10---------10-----------------------|x8

You'll see how the song goes you can hear the bass really good.
E-mail me kids with any questions or coments or just ya' know keep
them to yourself.I'll have more tabs posted like Submission,X and Y,and Melodrama plus 
and have a cool day.
Comments