Movielife - Face Or Kneecaps Chords & Tabs

 

Face Or Kneecaps Chords & Tabs

Movielife Chords & Tabs

Version: 3 Type: Tab 0 ratings
1 star 2 stars 3 stars 4 stars 5 stars
comments

Face Or Kneecaps Tab

-------------------------------------------------------------------------------
			    Face or Kneecaps - Movielife
-------------------------------------------------------------------------------

Tabbed by :matt esq.
Email: gimli_sonofgroin@hotmail.com

Tuning:drop D
intro / chorus
e|---------|-------------------------------------------------3-4-3------------|
B|---------|------------------------------------------------------------------|
G|---------|-5-5-55------------------------5-5-55-----------------------------|
D|-6-3-5-1-|-5-5-55-8-6-6-6-3-3-33-6-1-1-1-5-5-55-8-6-6-6-1-------------------|
A|-6-3-5-1-|-3-3-33-8-6-6-6-3-3-33-6-1-1-1-3-3-33-8-6-6-6-1-------------------|
D|-6-3-5-1-|--------8-6-6-6-3-3-33-6-1-1-1--------8-6-6-6-1-------------------|
(first time|
    only)  |
[ Tab from: http://www.guitartabs.cc/tabs/m/movielife/face_or_kneecaps_tab_ver_3.html ]
verse
e|---------------------------------------------------------------------------|
B|---------------------------------------------------------------------------|
G|-5-5-5-5-5-5-5-5-5-5-5-5-5-5-3-3-3-3-3-3-3-5-5-5-5-5-5-5-------------------|
D|-5-5-5-5-5-5-5-6-6-6-6-6-6-6-3-3-3-3-3-3-3-3-3-3-3-3-3-3-------------------|
A|-3-------------3-------------1-------------3-------------------------------|
D|---------------------------------------------------------------------------|
pre-chorus
e|---------------------------------------------------------------------------|
B|---------------------------------------------------------------------------|
G|-----------------8-8-8-8---------------------------------------------------|
D|-3-3-3-3-6-6-6-6-8-8-8-8-8-8-8-8-3-3-3-3-6-6-3-5-1-------------------------|
A|-3-3-3-3-6-6-6-6-6-6-6-6-8-8-8-8-3-3-3-3-6-6-3-5-1-------------------------|
D|-3-3-3-3-6-6-6-6---------8-8-8-8-3-3-3-3-6-6-3-5-1-------------------------|
bridge
e|---------------------------------------------------------------------------|
B|---------------------------------------------------------------------------|
G|-5--5--3--5--5--5--5--5-------5-5-5-5-5-5-5--------------------------------|
D|-5--6--3--3--5--6--6--3-------5-5-5-5-5-5-5-6-6-6-6-6-6-6-1-1-1-1-1-1-1----|
A|-3--3--1--3--3--3--1--3-------3-3-3-3-3-3-3-6-6-6-6-6-6-6-1-1-1-1-1-1-1----|
D|------------------------rake----------------6-6-6-6-6-6-6-1-1-1-1-1-1-1----|

e|---------------------------------------------------------------------------|
B|---------------------------------------------------------------------------|
G|---------------5-5-5-5-5-5-5-----------------------------------------------|
D|-3-3-3-3-3-3-3-5-5-5-5-5-5-5-6-6-6-6-6-6-6-1-1-1-1-1-1-1-3-6-6-3-5-1-------|
A|-3-3-3-3-3-3-3-3-3-3-3-3-3-3-6-6-6-6-6-6-6-1-1-1-1-1-1-1-3-6-6-3-5-1-------|
D|-3-3-3-3-3-3-3---------------6-6-6-6-6-6-6-1-1-1-1-1-1-1-3-6-6-3-5-1-------|

ending
e|---------------------------------------------------------------------------|
B|---------------------------------------------------------------------------|
G|-5-5-55------------------------5-------------------------------------------|
D|-5-5-55-8-6-6-6-3-3-33-6-1-1-1-5-8-1---------------------------------------|
A|-3-3-33-8-6-6-6-3-3-33-6-1-1-1-3-8-1---------------------------------------|
D|--------8-6-6-6-3-3-33-6-1-1-1---8-1---------------------------------------|


the song goes:
intro x 2
verse x 2
pre chorus
chorus x 2
verse x 2
pre chorus
chorus x 2
bridge
chorus x 1
ending

===============================================================================
Comments