Movielife - Face Or Kneecaps Chords & Tabs

 

Face Or Kneecaps Chords & Tabs

Movielife Chords & Tabs

Version: 1 Type: Tab 0 ratings
1 star 2 stars 3 stars 4 stars 5 stars
comments

Face Or Kneecaps Tab

   
The Movielife
Forty Hour Train Back to Penn
Face or Kneecaps


Intro/Chorus
Gb--2--------2-6-6-666-4-22-222---------2--------
Db--2--4--2--2-6-6-666-4-22-222-4-4-444-2-22-222-
Ab--0--4--2--0-4-4-444-2-00-000-4-4-444-0-22-222-
Eb-----2--0---------------------2-2-222---00-000-

Gb--6-6-666-4-22-222------------------
Db--6-6-666-4-22-222-2-2-222-2-22-222-
Ab--4-4-444-2-00-000-2-2-222-2-22-222-
Eb-------------------0-0-000-0-00-000-


Verse (not sure what guitar 1 does but here's the chords)
Gb--6----6----6----6----
Db--6----6----4----4----
Ab--4----4----2----0----
Eb----------------------

[ Tab from: http://www.guitartabs.cc/tabs/m/movielife/face_or_kneecaps_tab.html ]
Pre-chorus (here's the chords again)
Gb--------2-----4-----------------2---
Db--4-----2-----4-----2-----4-----2---
Ab--4-----0-----2-----2-----4-----0---
Eb--2-----------------0-----2---------


Bridge
Part a
Gb--6-----6-----4-----------
Db--6-----6-----4-----4-----
Ab--4-----4-----2-----4-----
Eb--------5-----------2-----

Part b
Gb--6---------------4---2-4-----
Db--6---2-4-7---2-4-4---2-4-4---
Ab--4---2-4-7---2-4-2---0-2-4---
Eb------0-2-5---0-2-------0-2---


Structure

Intro:  2x
Verse:  2x
Pre-chorus:  1x
Chorus:  2x
Verse:  2x
Pre-chorus:  1x
Chorus:  2x
Bridge part a:  2x
Bridge part b:  2x
Chorus:  2x
Comments