Move - Rage Your Dream Chords & Tabs

 

Rage Your Dream Chords & Tabs

Move Chords & Tabs

Version: 1 Type: Tab 0 ratings
1 star 2 stars 3 stars 4 stars 5 stars
comments

Rage Your Dream Tab

   
Rage Your Dream by MOVE 

Album: Initial D OST

Yours truly, TABBING MAN JAKE CHEN.

NOTE - At the bridge part, they change key. So just move everything up one fret. 
       I was too lazy to tab it out. 

Intro/Bridge 

E|------------------------------------|----------------------------------------|
B|-------4----4-3------------------3--|-------4----4-3-------------------------|
G|--3-5-5-5--5----5-3-3------3------3-|--3-5-5-5--5----5-3-3------3------------|
D|-5-----------------5--5-6-6-3-3-5---|-5-----------------5--5-6-6-3-3-5-3p1-1-|
A|-----------------------------6------|----------------------------------------|
D|------------------------------------|----------------------------------------|

Chorus 
[ Tab from: http://www.guitartabs.cc/tabs/m/move/rage_your_dream_tab.html ]
E|------------------------|---------------------|
B|------------------------|---------------------|
G|-5----------------------|-5--------------3----|
D|-5--6--8--5--6--3--5--8-|-5--6--8--5--3--3--1-|
A|-3--6--8--5--6--3--5--8-|-3--6--8--5--3--1--1-|
D|----6--8--5--6--3--5--8-|----6--8--5--3-----1-|

Post-Chorus

E|-------|
B|-------|
G|-5-5-5-|
D|-----5-|
A|-3-3-3-|
D|-------|

Verse

E|----------|---------|----------|
B|----------|---------|----------|
G|-5--8--10-|-5--8--3-|-5--8--10-|
D|-5--8--10-|-5--8--3-|-5--8--10-|
A|-3--6--8--|-3--6--1-|-3--6--8--|
D|----------|---------|----------|

E|----------|
B|----------|
G|-8--10--5-|
D|-8--10--5-|
A|-6--8---3-|
D|----------|

Pre-Chorus

E|-------------| 
B|-------------|
G|---------5---|
D|-6-8-6-5-5-8-|
A|-6-8-6-5-3-8-|
D|-6-8-6-5---8-| x2

E|------------|
B|------------|
G|------------|
D|-3--5--6--8-|
A|-3--5--6--8-|
D|-3--5--6--8-|
Comments