Mourning Widows - Temp Chords & Tabs

 

Temp Chords & Tabs

Mourning Widows Chords & Tabs

Version: 2 Type: Tab 0 ratings
1 star 2 stars 3 stars 4 stars 5 stars
comments

Temp Tab

   
*** THE TEMP ***  (transcription by Antonio)19/04/01

Mourning Widows -- Mourning Widows
 Music- N. Bettencourt  (I?m not sure)
 Lyrics- N. Bettencourt (I?m not sure)


 TUNE GUITAR DOWN 1/2 STEP (Eb) Eb Ab Db Gb Bb Eb


VERSE
                                             PM....              PM....
|--------------------------------------------------------------------------|
|--------------------------------------------------------------------------|
|--------------------------------------------------------------------------|
|--------------------------------------------------------------------------|
|--------------------------------2--5---7--8---------2--5---8--7-----------|
|--------------------------------0--3---5--6--0-0-0--0--3---6--5--0-0-0-0-3|
1-She's my baby  She is my Raygun
2-Kissin my..Kill me for fun fun

|--------------------------------------------------------------------------|
|--------------------------------------------------------------------------|
|--------------------------------------------------------------------------|
|--------------------------------------------------------------------------|
|------------------------------------2--5---7--8---------2--5---8--7-------|
|------------------------------------0--3---5--6--0-0-0--0--3---6--5--0-3-0|
3-Shes my sunshine My only sunshine


|---------------------------------------------|
|---------------------------------------------|
|---------------------------------------------|
|---------------------------------------------|
|-----2--5---7--8-----------2--5---8--7-------|
|-----0--3---5--6----0-0-0--0--3---6--5--0-3-0|
Painting my bluesky yellow with jaundice

                                                *BRIDGE
|-----------------------------------------------|--------------------------|
|-----------------------------------------------|--------------------------|
|-----------------------------------------------|--------------------------|
|-----------------------------------------------|--------------------------|
|-----2--5---7--8-----------2--5---8--7---------|--------------------------|
|-----0--3---5--6----0-0-0--0--3---6--5--0-3-0--|--------------------------|
                                                 She?s temp    she?s temp


|--------------------------------------------------------------------------|
|--------------------------------------------------------------------------|
|--------------------------------------------------------------------------|
|--------------------------------------------------------------------------|
|-----5--8---10-11----------5--8---11-10-----------------------------------|
|-----3--6---8--9----3-6-3--3--6---9--8--3-6-3--3-6------------------------|
   She got a  special    place for you           She?s temp    she?s temp


|----------------------------------------|
|----------------------------------------|
|----------------------------------------|
|----------------------------------------|
|-----5--8---10-11----------5--8---11-10-|
|-----3--6---8--9----3-6-3--3--6---9--8--|
   underneath her favourite pair of shoes


CHORUS
                (I wasn?t sure if it was C or Am
  F   G        C    because of the bass)
|----------------------------------------------------------------------|
|-1---3---3----5---5--5--5--------------1-----3---3----5--5-5-5--------|
|-2---4---4----5---5--5--5--------------2-----4---4----5--5-5-5--------|
|-3---5---5----5---5--5--5--------------3-----5---5----5--5-5-5--------|
|-3---5---5----3---3--3--3...-----------3-----5---5----3--3-3-3...-----|
|-1---3---3-----------------------------1-----3---3--------------------|
 Sui-cides are fed              modern love rises like bread    Playing


|----------------------------------------------------------------------|
|-1---3---3----5---5--5--5--------------1-----3---3----5--5-5-5--------|
|-2---4---4----5---5--5--5--------------2-----4---4----5--5-5-5--------|
|-3---5---5----5---5--5--5--------------3-----5---5----7--7-7-7--------|
|-3---5---5----3---3--3--3...-----------3-----5---5----7--7-7-7...-----|
|-1---3---3-----------------------------1-----3---3----5--5-5-5--------|
catch with livin skulls           hurry up somebody?s  dead


|----------------------------------|                   |--4--4-4-4-4-4-|
|-3--3-3-------1--1-----3-3--3-3---| I think           |-2--2-2-2-2-2--|
|-4--4-4-------2--2-----4-4--4-4---| another guitar    |---------------|
|-5--5-5-------3--3-----5-5--5-5---| is playing this   |---------------|
|-5--5-5-------3--3-----5-5--5-5---| during the        |---------------|
|-3--3-3-....--1--1..---3-3--3-3..-| whole chorus.     |---------------|
 we?re        still   alive

VERSES(same as before)

  4- She?s my baby  she got the big gulp
  5- Devour my soul food over and over

|--------------------------------------------------------------------------|
|--------------------------------------------------------------------------|
|--------------------------------------------------------------------------|
|--------------------------------------------------------------------------|
|------------------------------------2--5---7--8---------2--5---8--7-------|
|------------------------------------0--3---5--6--0-0-0--0--3---6--5--0-3-0|
6-Trouble breathing my world?s stranglin


|---------------------------------------------|
|---------------------------------------------|
|---------------------------------------------|
|---------------------------------------------|
|-----2--5---7--8-----------2--5---8--7-------|
|-----0--3---5--6----0-0-0--0--3---6--5--0-3-0|
 Lovely gorilla she strictly hands on


BRIDGE II

|-----------------------------------------------|--------------------------|
|-----------------------------------------------|--------------------------|
|-----------------------------------------------|--------------------------|
|-----------------------------------------------|--------------------------|
|-----2--5---7--8-----------2--5---8--7---------|--------------------------|
|-----0--3---5--6----0-0-0--0--3---6--5--0-3-0--|--------------------------|
 (she strictly hands on, she strictly hands on)  She?s temp    she?s temp


|--------------------------------------------------------------------------|
|--------------------------------------------------------------------------|
|--------------------------------------------------------------------------|
|--------------------------------------------------------------------------|
|-----5--8---10-11----------5--8---11-10-----------------------------------|
|-----3--6---8--9----3-6-3--3--6---9--8--3-6-3--3-6------------------------|
     She's  into  nucleo  and   nucliete            She?s temp    she?s temp

|--------------------------------------------------------------------------|
|--------------------------------------------------------------------------|
|--------------------------------------------------------------------------|
|--------------------------------------------------------------------------|
|-----5--8---10-11----------5--8---11-10-----------------------------------|
|-----3--6---8--9----3-6-3--3--6---9--8--3-6-3--3-6------------------------|
     She makes me feel like I am hovering            580  meters  over

|----------------------------------------|
|----------------------------------------|
|----------------------------------------|
|----------------------------------------|
|-----5--8---10-11----------5--8---11-10-|
|-----3--6---8--9----3-6-3--3--6---9--8--|
    Hiroshima             Hiroshima


CHORUS II
 (same as before)

  F   G        C
|----------------------------------------------------------------------|
|-1---3---3----5---5--5--5--------------1-----3---3----5--5-5-5--------|
|-2---4---4----5---5--5--5--------------2-----4---4----5--5-5-5--------|
|-3---5---5----5---5--5--5--------------3-----5---5----5--5-5-5--------|
|-3---5---5----3---3--3--3...-----------3-----5---5----3--3-3-3...-----|
|-1---3---3-----------------------------1-----3---3--------------------|
 Just a piece of  sun           on your skin I burn a  home     Lying lo-


|----------------------------------------------------------------------|
|-1---3---3----5---5--5--5--------------1-----3---3----5--5-5-5--------|
|-2---4---4----5---5--5--5--------------2-----4---4----5--5-5-5--------|
|-3---5---5----5---5--5--5--------------3-----5---5----7--7-7-7--------|
|-3---5---5----3---3--3--3...-----------3-----5---5----7--7-7-7...-----|
|-1---3---3-----------------------------1-----3---3----5--5-5-5--------|
tion soothes the pain           peel me up  before I  fall


|----------------------------------|                   |--4--4-4-4-4-4-|
|-3--3-3-------1--1-----3-3--3-3---| I think           |-2--2-2-2-2-2--|
|-4--4-4-------2--2-----4-4--4-4---| another guitar    |---------------|
|-5--5-5-------3--3-----5-5--5-5---| is playing this   |---------------|
|-5--5-5-------3--3-----5-5--5-5---| during the        |---------------|
|-3--3-3-....--1--1..---3-3--3-3..-| whole chorus.     |---------------|
             before I   fall

SOLO

slide                                                      bu1/4.....
|----------------------------------12-14-12------12--------------------|
|-------------------------15-12-15-----------12--12--\/12--12--12--12--|
|\-------------------14-12-----------------------12--\/12--12--12--12--|
|-\-------------14-12----------------------------14--------------------|
|--\------14-12--------------------------------------------------------|
|------12--------------------------------------------------------------|

 ...
|----------------------------------------------------------------------|
|-12--14bu-----12\--12-------------------------------------------------|
|-12--14bu(15)-12\----12--12-13-12--12--12-12-11-12---------12-12-11-12|
|----------------------------------------------------------------------|
|-----------------------------------10--10-10-9--10--10-----10-10-9--10|
|----------------------------------------------------------------------|


|----------------------------------------------------------------------|
|----------------------------------------------------------------------|
|------12-12-11-12-------11-12------12-12-11-12-----12-12-11-12--------|
|--------------------9----------12--------------13--------------14-----|
|-12---12-12----12-----------------------------------------------------|
|----------------------------------------------------------------------|


|----------------------------------------------------------------------|
|----------------------------------------------------------------------|
|-12-12-11-12------12-12-11-12------11-12-----11-12-----11-12----11-12-|
|------------------------------------------9--------12--------13-------|
|-------------10---10-10-10-10--12-------------------------------------|
|----------------------------------------------------------------------|


|---(noise-------------------------------------------------------------|
|----like---------13-13--13-13----9-11-13-9-11~----8-9-11-8-9~---------|
|---vibrato------------------------------------------------------------|
|14--and-~\~-----------------------------------------------------------|
|---slide--------------------------------------------------------------|
|---down-)-------------------------------------------------------------|


|----------------------8-----------------------------------------------|
|----8-9----8------8-9------12-----11-9-8-11-9-------------------------|
|-10-----10---8-10--------------------------------12---10-8--12-10-8---|
|----------------------------------------------------------------------|
|----------------------------------------------------------------------|
|----------------------------------------------------------------------|
[ Tab from: http://www.guitartabs.cc/tabs/m/mourning_widows/temp_tab_ver_2.html ]
                                                   1/2
|-----------------------------19--------10-12----14bu(15)-15-15-15bd(14--|
|------------------------------------12-------12-------------------------|
|--12---10-8----10-8\10~-------------------------------------------------|
|------------10----------------------------------------------------------|
|------------------------------------------------------------------------|
|------------------------------------------------------------------------|

                         1
|-12----12-------------------------------------------------------------|
|----15----15-12---12---------12-15-12--12-----------------------------|
|---------------14----14bu(16)--------14---15-14-12---14----12-11----11|
|---------------------------------------------------14---14-------14---|
|----------------------------------------------------------------------|
|----------------------------------------------------------------------|

                                          1/2
|----------------------------------------------------------------------|
|----------------------------------------14bu(15)--15--15--15---15-15--|
|-------11------------------------\\-----------------------------------|
|-12-14----12----12---------------\\-----------------------------------|
|-------------14---14--------------------------------------------------|
|--------------------15/17\15/17~--------------------------------------|

                                           1/4 1/4                 1/4
|----------------------------------------------------------------19bu--|
|--15-15--15----15-15---15-15---15-15----15bd15bd----14-14~~~~---------|
|----------------------------------------------------------------------|
|----------------------------------------------------------------------|
|----------------------------------------------------------------------|
|----------------------------------------------------------------------|

             1/4           1/4         1/4
|--16------19bu---16-15--19bu--16----19bu--16-----19bu--16---19bu--16--|
|----16--------------------------16----------16-----------16---------16|
|----------------------------------------------------------------------|
|----------------------------------------------------------------------|
|----------------------------------------------------------------------|
|----------------------------------------------------------------------|

     1/2   1/2
|--19bu--19bu---21----21-19---19--18~--18-21-19-18-------19--18--------|
|--------------------------21----------------------21~~----21---19~----|
|----------------------------------------------------------------------|
|----------------------------------------------------------------------|
|----------------------------------------------------------------------|
|----------------------------------------------------------------------|

                                   fast...           1
|-18-19----18------18-19-21-18-----------------------------------------|
|-------21---19~---------------19~--------19-18--21--bubd----19-19-----|
|------------------------------------18-18-----18-------------------18-|
|----------------------------------------------------------------------|
|----------------------------------------------------------------------|
|----------------------------------------------------------------------|

       1
|----------------------------------------------------------------------|
|-21--bubd-----19~----18bubd---14-15--13-14-13--12-----13---15--14--12-|
|-----------18------18------------------------------15-----------------|
|----------------------------------------------------------------------|
|----------------------------------------------------------------------|
|----------------------------------------------------------------------|

                        w/bar?
|----------------------------------------------------------------------|
|---14-14--12--14-15-14-12~---------12--14-12--15-14-12--14--12--------|
|-13-----13--------------------11-13--11---------------13--13----------|
|----------------------------------------------------------------------|
|----------------------------------------------------------------------|
|----------------------------------------------------------------------|

                      faster....
|--------------------------------------------16-14-16--16---------16-----|
|-15-14-12--14--12-14-15-14-12---14--12-14-15------------14bd(13)---14bd-|
|---------13--13--------------13---13------------------------------------|
|------------------------------------------------------------------------|
|------------------------------------------------------------------------|
|------------------------------------------------------------------------|

                         too fast
|-16-------------------------------------------------------------------|
|---15-14-12--14--14-12-----------16-15-14-15-14-??---12-14-15-16-15-14|
|-----------13--13-----13-??????--------------------13-----------------|
|----------------------------------------------------------------------|
|----------------------------------------------------------------------|
|----------------------------------------------------------------------|

                 |..........this pattern is repeated......|
|----------------------------------------------------------------------|
|-16-15-14-12--14--12-14-15-16-17-16-15-16--16-15-14-12--14-----12-14--|
|------------13--13------------------------------------13-----13-------|
|----------------------------------------------------------------------|
|----------------------------------------------------------------------|
|----------------------------------------------------------------------|

                                          AH.1/4      AH.
|-----------------------------------------19bu-16----19bu---16---------|
|-15-16-17-16-15-16--16-15-14-12--14-------------16-----------16-------|
|-------------------------------13-------------------------------------|
|----------------------------------------------------------------------|
|----------------------------------------------------------------------|
|----------------------------------------------------------------------|

    AH.
|---19bu--16------16bu--16-----19bu--19bu-----|
|-----------16------------16------------------|
|---------------------------------------------|
|---------------------------------------------|
|---------------------------------------------|
|---------------------------------------------|


(back to chorus)


|----------------------------------------------------------------------|
|-1---3---3----5---5--5--5--------------1-----3---3----5--5-5-5--------|
|-2---4---4----5---5--5--5--------------2-----4---4----5--5-5-5--------|
|-3---5---5----5---5--5--5--------------3-----5---5----5--5-5-5--------|
|-3---5---5----3---3--3--3...-----------3-----5---5----3--3-3-3...-----|
|-1---3---3-----------------------------1-----3---3--------------------|
        Heeeh                          love rises like bread    Playing


|----------------------------------------------------------------------|
|-1---3---3----5---5--5--5--------------1-----3---3----5--5-5-5--------|
|-2---4---4----5---5--5--5--------------2-----4---4----5--5-5-5--------|
|-3---5---5----5---5--5--5--------------3-----5---5----7--7-7-7--------|
|-3---5---5----3---3--3--3...-----------3-----5---5----7--7-7-7...-----|
|-1---3---3-----------------------------1-----3---3----5--5-5-5--------|
catch with livin skulls           hurry up somebody?s  dead


|----------------------------------|
|-3--3-3-------1--1-----3-3--3-3---|
|-4--4-4-------2--2-----4-4--4-4---|
|-5--5-5-------3--3-----5-5--5-5---|
|-5--5-5-------3--3-----5-5--5-5---|
|-3--3-3-....--1--1..---3-3--3-3..-|
 we?re        still   alive


(I think guitar is playing a C chord all the time, but let?s make funnier)

|-----------------------------------------------0----------------------|
|---------------1--------------1-----------1--------1------------------|
|-------------0---0----------0---0-------0---0----------0--------------|
|-----------2--------------2-----------2--------------------2----------|
|---------3--------------2-----------3---------------------------------|
|----------------------------------------------------------------------|
 She?s to blame      She seems a bit insane       She likes it when it

|----------------------------------------0---------|
|--------1--------------1-----------1------1-------|
|------0---0----------0---0-------0---0------0-----|
|----2--------------2-----------2--------------2---|
|--3--------------2-----------3--------------------|
|--------------------------------------------------|
  rains          all   day   long

|-----------------------------------------------0----------------------|
|---------------1--------------1-----------1--------1------------------|
|-------------0---0----------0---0-------0---0----------0--------------|
|-----------2--------------2-----------2--------------------2----------|
|---------3--------------2-----------3---------------------------------|
|----------------------------------------------------------------------|
|    Happiness     is knocking but she cries      then turning out the |
|                 ....                                                 |
|----------------------------------------------------------------------|
|----------------------------------------------------------------------|Guitar
|----------------------------------------------------------------------|  II
|----5-/-7-/-9-/-10------9---------------10-9bu(10)--9-\--7-\-5-\--3---|
|----------------------------------------------------------------------|
|----------------------------------------------------------------------|


|-------------------------------0------------------|
|--------1--------------1-------1------------------|
|------0---0----------0---0-----0------------------|
|----2--------------2------------------------------|
|--3--------------2--------------------------------|
|--------------------------------------------------|
| lights         she runs and cries                |
|                                                  |
|--------------------------------------------------|
|--------------------------------------------------|
|--------------------------------------------------|
|-/5---7-5-\3-5---5\--3---/5-----------------------|
|-------------------------------3(very low)--------|
|--------------------------------------------------|

*************************** END (enjoy it!)***********************

        This one was exahusting, there was a part of the solo that I had to
listen many times before I could figure out what the guitar was doing.
Anyway, take this only as a guide, cause some parts might be wrong as I know
nothing bout scales, solos or musical theory, I just wrote what my ears told
me to write. See that I tried to keep words under notes as the song sounds
but to be sure listen to the song. Same for the solo; space between notes
means nothing, but you might notice I keept parts separated to make it easier;
otherwise it would be an awful file of numbers.
        Any suggestion, correction, question or whatever you want to tell me,
fell free to email me:   asc12@alu.um.es    or    nunozowie@mixmail.com

        By the way, if you see this symbol  ?  it?s supposed to be an
apostrophe.

        Things I?ve used for the transcription:
       -Transcribe! 2.00 (Unregistered version). It slowsdown Wavs. Get it at
                    www.harmony-central.com
                    www.seventhstring.demon.co.uk
       -Winamp
       -My shitty Samick Artists Series

************************************************************************
******************************S Y M B O L S*****************************
************************************************************************

h  ======>hammer on
p  ======>pull off
b  ======>bend  1=one step(two frets) ==>bu(bend up) bd(bend down)
A.H. ====>Artificial harmonics
P.M. ====>Palm Mute
/ and \ =>slide
+  ======>fret board tapping
X  ======>Muted strings
~~~  ===>vibrato
w\bar  =>whammy bar
************************************************************************
Comments